  0
SECTION
  2
HEADER
  9
$ACADVER
  1
AC1009
  9
$INSBASE
 10
487.98439324860368
 20
664.00000019935305
 30
0.0
  9
$EXTMIN
 10
439.0137059136905
 20
183.74635905929239
 30
-10.00061030499708
  9
$EXTMAX
 10
8654.5898705890722
 20
4168.3502350565386
 30
10.000610398129361
  9
$LIMMIN
 10
0.0
 20
0.0
  9
$LIMMAX
 10
14400.0
 20
9000.0
  9
$ORTHOMODE
 70
     1
  9
$REGENMODE
 70
     1
  9
$FILLMODE
 70
     1
  9
$QTEXTMODE
 70
     0
  9
$MIRRTEXT
 70
     0
  9
$DRAGMODE
 70
     2
  9
$LTSCALE
 40
0.5
  9
$OSMODE
 70
    37
  9
$ATTMODE
 70
     1
  9
$TEXTSIZE
 40
0.2
  9
$TRACEWID
 40
0.05
  9
$TEXTSTYLE
  7
STANDARD
  9
$CLAYER
  8
FACILITY
  9
$CELTYPE
  6
BYLAYER
  9
$CECOLOR
 62
   256
  9
$DIMSCALE
 40
192.0
  9
$DIMASZ
 40
0.15
  9
$DIMEXO
 40
0.25
  9
$DIMDLI
 40
0.5
  9
$DIMRND
 40
0.0
  9
$DIMDLE
 40
0.125
  9
$DIMEXE
 40
0.078125
  9
$DIMTP
 40
0.0
  9
$DIMTM
 40
0.0
  9
$DIMTXT
 40
0.09375
  9
$DIMCEN
 40
0.09375
  9
$DIMTSZ
 40
0.0
  9
$DIMTOL
 70
     0
  9
$DIMLIM
 70
     0
  9
$DIMTIH
 70
     0
  9
$DIMTOH
 70
     0
  9
$DIMSE1
 70
     0
  9
$DIMSE2
 70
     0
  9
$DIMTAD
 70
     1
  9
$DIMZIN
 70
     3
  9
$DIMBLK
  1

  9
$DIMASO
 70
     1
  9
$DIMSHO
 70
     1
  9
$DIMPOST
  1

  9
$DIMAPOST
  1

  9
$DIMALT
 70
     0
  9
$DIMALTD
 70
     2
  9
$DIMALTF
 40
25.399999999999999
  9
$DIMLFAC
 40
1.0
  9
$DIMTOFL
 70
     1
  9
$DIMTVP
 40
0.0
  9
$DIMTIX
 70
     0
  9
$DIMSOXD
 70
     0
  9
$DIMSAH
 70
     0
  9
$DIMBLK1
  1

  9
$DIMBLK2
  1

  9
$DIMSTYLE
  2
AEC_ARCH_I
  9
$DIMCLRD
 70
     0
  9
$DIMCLRE
 70
     0
  9
$DIMCLRT
 70
     0
  9
$DIMTFAC
 40
0.75
  9
$DIMGAP
 40
0.046875
  9
$LUNITS
 70
     4
  9
$LUPREC
 70
     4
  9
$SKETCHINC
 40
0.1
  9
$FILLETRAD
 40
0.0
  9
$AUNITS
 70
     0
  9
$AUPREC
 70
     2
  9
$MENU
  1
.
  9
$ELEVATION
 40
0.0
  9
$PELEVATION
 40
0.0
  9
$THICKNESS
 40
0.0
  9
$LIMCHECK
 70
     0
  9
$BLIPMODE
 70
     0
  9
$CHAMFERA
 40
1.5
  9
$CHAMFERB
 40
1.5
  9
$SKPOLY
 70
     0
  9
$TDCREATE
 40
2451471.6007537609
  9
$TDUPDATE
 40
2452118.7238207171
  9
$TDINDWG
 40
8.8453356250000006
  9
$TDUSRTIMER
 40
8.8453352546000001
  9
$USRTIMER
 70
     1
  9
$ANGBASE
 50
0.0
  9
$ANGDIR
 70
     0
  9
$PDMODE
 70
     3
  9
$PDSIZE
 40
0.0
  9
$PLINEWID
 40
0.0
  9
$COORDS
 70
     1
  9
$SPLFRAME
 70
     0
  9
$SPLINETYPE
 70
     6
  9
$SPLINESEGS
 70
     8
  9
$ATTDIA
 70
     0
  9
$ATTREQ
 70
     1
  9
$HANDLING
 70
 10241
  9
$HANDSEED
  5
3FF3
  9
$SURFTAB1
 70
     6
  9
$SURFTAB2
 70
     6
  9
$SURFTYPE
 70
     6
  9
$SURFU
 70
     6
  9
$SURFV
 70
     6
  9
$UCSNAME
  2

  9
$UCSORG
 10
0.0
 20
0.0
 30
0.0
  9
$UCSXDIR
 10
1.0
 20
0.0
 30
0.0
  9
$UCSYDIR
 10
0.0
 20
1.0
 30
0.0
  9
$PUCSNAME
  2

  9
$PUCSORG
 10
0.0
 20
0.0
 30
0.0
  9
$PUCSXDIR
 10
1.0
 20
0.0
 30
0.0
  9
$PUCSYDIR
 10
0.0
 20
1.0
 30
0.0
  9
$USERI1
 70
     0
  9
$USERI2
 70
     0
  9
$USERI3
 70
     0
  9
$USERI4
 70
     0
  9
$USERI5
 70
     0
  9
$USERR1
 40
0.0
  9
$USERR2
 40
0.0
  9
$USERR3
 40
0.0
  9
$USERR4
 40
0.0
  9
$USERR5
 40
0.0
  9
$WORLDVIEW
 70
     1
  9
$SHADEDGE
 70
     3
  9
$SHADEDIF
 70
    70
  9
$TILEMODE
 70
     1
  9
$MAXACTVP
 70
    48
  9
$PLIMCHECK
 70
     0
  9
$PEXTMIN
 10
1.0604166909465631
 20
0.810416638381838
 30
0.0
  9
$PEXTMAX
 10
9.5437502185190741
 20
7.2937497454365401
 30
0.0
  9
$PLIMMIN
 10
-0.1979161059762549
 20
-0.1979166691697489
  9
$PLIMMAX
 10
10.80208365372785
 20
8.3020830905343601
  9
$UNITMODE
 70
     0
  9
$VISRETAIN
 70
     1
  9
$PLINEGEN
 70
     0
  9
$PSLTSCALE
 70
     1
  0
ENDSEC
  0
SECTION
  2
TABLES
  0
TABLE
  2
VPORT
 70
     4
  0
VPORT
  2
*ACTIVE
 70
     0
 10
0.0
 20
0.0
 11
1.0
 21
1.0
 12
2375.8913293674732
 22
3805.6907269351882
 13
0.0
 23
0.0
 14
12.0
 24
12.0
 15
0.0
 25
0.0
 16
0.0
 26
0.0
 36
1.0
 17
2170.9104588839068
 27
-1629.642429877272
 37
541.26802900663529
 40
5747.3403793012421
 41
1.7974910394265231
 42
50.0
 43
0.0
 44
0.0
 50
0.0
 51
0.0
 71
     0
 72
  3000
 73
     1
 74
     0
 75
     0
 76
     0
 77
     0
 78
     0
  0
ENDTAB
  0
TABLE
  2
LTYPE
 70
     5
  0
LTYPE
  2
CONTINUOUS
 70
     0
  3
Solid line
 72
    65
 73
     0
 40
0.0
  0
LTYPE
  2
DASHED
 70
     0
  3
Dashed __ __ __ __ __ __ __ __ __ __ __ __ __ _
 72
    65
 73
     2
 40
0.75
 49
0.5
 49
-0.25
  0
LTYPE
  2
CENTER
 70
     0
  3
Center ____ _ ____ _ ____ _ ____ _ ____ _ ____
 72
    65
 73
     4
 40
2.0
 49
1.25
 49
-0.25
 49
0.25
 49
-0.25
  0
ENDTAB
  0
TABLE
  2
LAYER
 70
    32
  0
LAYER
  2
0
 70
     0
 62
     7
  6
CONTINUOUS
  0
LAYER
  2
DEFPOINTS
 70
     0
 62
     7
  6
CONTINUOUS
  0
LAYER
  2
WALLS-EXTERIOR
 70
     0
 62
     7
  6
CONTINUOUS
  0
LAYER
  2
FACILITY
 70
     0
 62
     7
  6
CONTINUOUS
  0
ENDTAB
  0
TABLE
  2
STYLE
 70
     4
  0
STYLE
  2
STANDARD
 70
     0
 40
0.0
 41
1.0
 50
0.0
 71
     0
 42
0.2
  3
simplex.shx
  4

  0
STYLE
  2
ROOMS
 70
     0
 40
0.0
 41
1.0
 50
0.0
 71
     0
 42
4.7999999999999989
  3
tchandno.shx
  4

  0
ENDTAB
  0
TABLE
  2
VIEW
 70
     1
  0
VIEW
  2
LJ
 70
     1
 40
8.0
 10
81.869252905577923
 20
29.345925126351741
 41
10.5
 11
0.0
 21
0.0
 31
1.0
 12
0.0
 22
0.0
 32
0.0
 42
50.0
 43
0.0
 44
0.0
 50
0.0
 71
     0
  0
ENDTAB
  0
TABLE
  2
UCS
 70
     0
  0
ENDTAB
  0
TABLE
  2
APPID
 70
     3
  0
APPID
  2
ACAD
 70
     0
  0
APPID
  2
XLAYERKEYSTYLE
 70
     0
  0
APPID
  2
CONTENTBLOCKICON
 70
     0
  0
ENDTAB
  0
TABLE
  2
DIMSTYLE
 70
     3
  0
DIMSTYLE
  2
AEC_ARCH_I
 70
     0
  3

  4

  5

  6

  7

 40
192.0
 41
0.15
 42
0.25
 43
0.5
 44
0.078125
 45
0.0
 46
0.125
 47
0.0
 48
0.0
140
0.09375
141
0.09375
142
0.0
143
25.399999999999999
144
1.0
145
0.0
146
0.75
147
0.046875
 71
     0
 72
     0
 73
     0
 74
     0
 75
     0
 76
     0
 77
     1
 78
     3
170
     0
171
     2
172
     1
173
     0
174
     0
175
     0
176
     0
177
     0
178
     0
  0
DIMSTYLE
  2
STANDARD
 70
     0
  3

  4

  5

  6

  7

 40
1.0
 41
0.18
 42
0.0625
 43
0.38
 44
0.18
 45
0.0
 46
0.0
 47
0.0
 48
0.0
140
0.18
141
0.09
142
0.0
143
25.399999999999999
144
1.0
145
0.0
146
1.0
147
0.09
 71
     0
 72
     0
 73
     1
 74
     1
 75
     0
 76
     0
 77
     0
 78
     0
170
     0
171
     2
172
     0
173
     0
174
     0
175
     0
176
     0
177
     0
178
     0
  0
ENDTAB
  0
ENDSEC
  0
SECTION
  2
BLOCKS
  0
BLOCK
  8
0
  2
$MODEL_SPACE
 70
     0
 10
0.0
 20
0.0
 30
0.0
  3
$MODEL_SPACE
  1

  0
ENDBLK
  5
D
  8
0
  0
BLOCK
 67
     1
  8
0
  2
$PAPER_SPACE
 70
     0
 10
0.0
 20
0.0
 30
0.0
  3
$PAPER_SPACE
  1

  0
ENDBLK
  5
2F95
 67
     1
  8
0
  0
BLOCK
  8
0
  2
*U249
 70
     1
 10
0.0
 20
0.0
 30
0.0
  3
*U249
  1

  0
TEXT
  5
3C19
  8
FACILITY
 62
     0
 10
3002.3058218200331
 20
4352.7228091682236
 30
0.0
 40
18.0
  1
25'-7
  7
ROOMS
  0
TEXT
  5
3C1A
  8
FACILITY
 62
     0
 10
3086.627250391462
 20
4363.9728091682236
 30
0.0
 40
13.5
  1
1
  7
ROOMS
  0
LINE
  5
3C1B
  8
FACILITY
 10
3083.7343932486042
 20
4361.7228091682236
 30
0.0
 11
3092.7343932486042
 21
4361.7228091682236
 31
0.0
  0
TEXT
  5
3C1C
  8
FACILITY
 62
     0
 10
3083.7343932486042
 20
4345.9728091682236
 30
0.0
 40
13.5
  1
2
  7
ROOMS
  0
TEXT
  5
3C1D
  8
FACILITY
 62
     0
 10
3096.5915361057469
 20
4352.7228091682236
 30
0.0
 40
18.0
  1
"
  7
ROOMS
  0
ENDBLK
  5
3C1F
  8
0
  0
BLOCK
  8
0
  2
*U250
 70
     1
 10
0.0
 20
0.0
 30
0.0
  3
*U250
  1

  0
TEXT
  5
3C21
  8
FACILITY
 62
     0
 10
6024.8058218200331
 20
4352.7228091682236
 30
0.0
 40
18.0
  1
25'-7
  7
ROOMS
  0
TEXT
  5
3C22
  8
FACILITY
 62
     0
 10
6109.1272503914624
 20
4363.9728091682236
 30
0.0
 40
13.5
  1
1
  7
ROOMS
  0
LINE
  5
3C23
  8
FACILITY
 10
6106.2343932486037
 20
4361.7228091682236
 30
0.0
 11
6115.2343932486046
 21
4361.7228091682236
 31
0.0
  0
TEXT
  5
3C24
  8
FACILITY
 62
     0
 10
6106.2343932486037
 20
4345.9728091682236
 30
0.0
 40
13.5
  1
2
  7
ROOMS
  0
TEXT
  5
3C25
  8
FACILITY
 62
     0
 10
6119.0915361057478
 20
4352.7228091682236
 30
0.0
 40
18.0
  1
"
  7
ROOMS
  0
ENDBLK
  5
3C27
  8
0
  0
BLOCK
  8
0
  2
*U251
 70
     1
 10
0.0
 20
0.0
 30
0.0
  3
*U251
  1

  0
TEXT
  5
3C29
  8
FACILITY
 62
     0
 10
5717.3058218200331
 20
4352.7228091682236
 30
0.0
 40
18.0
  1
25'-7
  7
ROOMS
  0
TEXT
  5
3C2A
  8
FACILITY
 62
     0
 10
5801.6272503914624
 20
4363.9728091682236
 30
0.0
 40
13.5
  1
1
  7
ROOMS
  0
LINE
  5
3C2B
  8
FACILITY
 10
5798.7343932486037
 20
4361.7228091682236
 30
0.0
 11
5807.7343932486046
 21
4361.7228091682236
 31
0.0
  0
TEXT
  5
3C2C
  8
FACILITY
 62
     0
 10
5798.7343932486037
 20
4345.9728091682236
 30
0.0
 40
13.5
  1
2
  7
ROOMS
  0
TEXT
  5
3C2D
  8
FACILITY
 62
     0
 10
5811.5915361057478
 20
4352.7228091682236
 30
0.0
 40
18.0
  1
"
  7
ROOMS
  0
ENDBLK
  5
3C2F
  8
0
  0
BLOCK
  8
0
  2
*U252
 70
     1
 10
0.0
 20
0.0
 30
0.0
  3
*U252
  1

  0
TEXT
  5
3C31
  8
FACILITY
 62
     0
 10
4501.1350538668339
 20
4569.5738295763867
 30
0.0
 40
18.0
  1
355'-2 
  7
ROOMS
  0
TEXT
  5
3C32
  8
FACILITY
 62
     0
 10
4618.6921967239759
 20
4580.673829576388
 30
0.0
 40
12.6
  1
1
  7
ROOMS
  0
LINE
  5
3C33
  8
FACILITY
 10
4615.9921967239761
 20
4578.5738295763867
 30
0.0
 11
4624.3921967239758
 21
4578.5738295763867
 31
0.0
  0
TEXT
  5
3C34
  8
FACILITY
 62
     0
 10
4615.9921967239761
 20
4563.8738295763878
 30
0.0
 40
12.6
  1
2
  7
ROOMS
  0
TEXT
  5
3C35
  8
FACILITY
 62
     0
 10
4627.992196723977
 20
4569.5738295763867
 30
0.0
 40
18.0
  1
"
  7
ROOMS
  0
ENDBLK
  5
3C37
  8
0
  0
BLOCK
  8
0
  2
*U253
 70
     1
 10
0.0
 20
0.0
 30
0.0
  3
*U253
  1

  0
TEXT
  5
3C39
  8
FACILITY
 62
     0
 10
8739.4154619304172
 20
712.035714485065
 30
0.0
 40
18.0
  1
15'-2
 50
90.0
  7
ROOMS
  0
TEXT
  5
3C3A
  8
FACILITY
 62
     0
 10
8728.165461930419
 20
792.92857162792222
 30
0.0
 40
13.5
  1
1
 50
90.0
  7
ROOMS
  0
LINE
  5
3C3B
  8
FACILITY
 10
8730.4154619304172
 20
790.03571448506511
 30
0.0
 11
8730.4154619304172
 21
799.035714485065
 31
0.0
  0
TEXT
  5
3C3C
  8
FACILITY
 62
     0
 10
8746.1654619304209
 20
790.03571448506511
 30
0.0
 40
13.5
  1
2
 50
90.0
  7
ROOMS
  0
TEXT
  5
3C3D
  8
FACILITY
 62
     0
 10
8739.4154619304172
 20
802.89285734220778
 30
0.0
 40
18.0
  1
"
 50
90.0
  7
ROOMS
  0
ENDBLK
  5
3C3F
  8
0
  0
BLOCK
  8
0
  2
*U254
 70
     1
 10
0.0
 20
0.0
 30
0.0
  3
*U254
  1

  0
TEXT
  5
3C41
  8
FACILITY
 62
     0
 10
8739.4154619304172
 20
612.91428591363513
 30
0.0
 40
18.0
  1
9
 50
90.0
  7
ROOMS
  0
TEXT
  5
3C42
  8
FACILITY
 62
     0
 10
8728.165461930419
 20
632.95000019934935
 30
0.0
 40
13.5
  1
1
 50
90.0
  7
ROOMS
  0
LINE
  5
3C43
  8
FACILITY
 10
8730.4154619304172
 20
630.05714305649224
 30
0.0
 11
8730.4154619304172
 21
639.05714305649224
 31
0.0
  0
TEXT
  5
3C44
  8
FACILITY
 62
     0
 10
8746.1654619304209
 20
630.05714305649224
 30
0.0
 40
13.5
  1
2
 50
90.0
  7
ROOMS
  0
TEXT
  5
3C45
  8
FACILITY
 62
     0
 10
8739.4154619304172
 20
642.91428591363513
 30
0.0
 40
18.0
  1
"
 50
90.0
  7
ROOMS
  0
ENDBLK
  5
3C47
  8
0
  0
BLOCK
  8
0
  2
*U255
 70
     1
 10
0.0
 20
0.0
 30
0.0
  3
*U255
  1

  0
TEXT
  5
3C49
  8
FACILITY
 62
     0
 10
375.56326530612222
 20
712.03571448506568
 30
0.0
 40
18.0
  1
15'-2
 50
90.0
  7
ROOMS
  0
TEXT
  5
3C4A
  8
FACILITY
 62
     0
 10
364.31326530612222
 20
792.92857162792279
 30
0.0
 40
13.5
  1
1
 50
90.0
  7
ROOMS
  0
LINE
  5
3C4B
  8
FACILITY
 10
366.56326530612222
 20
790.03571448506568
 30
0.0
 11
366.56326530612222
 21
799.03571448506568
 31
0.0
  0
TEXT
  5
3C4C
  8
FACILITY
 62
     0
 10
382.31326530612222
 20
790.03571448506568
 30
0.0
 40
13.5
  1
2
 50
90.0
  7
ROOMS
  0
TEXT
  5
3C4D
  8
FACILITY
 62
     0
 10
375.56326530612222
 20
802.89285734220846
 30
0.0
 40
18.0
  1
"
 50
90.0
  7
ROOMS
  0
ENDBLK
  5
3C4F
  8
0
  0
BLOCK
  8
0
  2
*U256
 70
     1
 10
0.0
 20
0.0
 30
0.0
  3
*U256
  1

  0
TEXT
  5
3C51
  8
FACILITY
 62
     0
 10
375.5632653061221
 20
902.03571448506716
 30
0.0
 40
18.0
  1
16'-5
 50
90.0
  7
ROOMS
  0
TEXT
  5
3C52
  8
FACILITY
 62
     0
 10
364.3132653061221
 20
982.92857162792438
 30
0.0
 40
13.5
  1
1
 50
90.0
  7
ROOMS
  0
LINE
  5
3C53
  8
FACILITY
 10
366.5632653061221
 20
980.03571448506727
 30
0.0
 11
366.5632653061221
 21
989.03571448506727
 31
0.0
  0
TEXT
  5
3C54
  8
FACILITY
 62
     0
 10
382.3132653061221
 20
980.03571448506727
 30
0.0
 40
13.5
  1
2
 50
90.0
  7
ROOMS
  0
TEXT
  5
3C55
  8
FACILITY
 62
     0
 10
375.5632653061221
 20
992.89285734221005
 30
0.0
 40
18.0
  1
"
 50
90.0
  7
ROOMS
  0
ENDBLK
  5
3C57
  8
0
  0
BLOCK
  8
0
  2
*U257
 70
     1
 10
0.0
 20
0.0
 30
0.0
  3
*U257
  1

  0
TEXT
  5
3C59
  8
FACILITY
 62
     0
 10
375.56326530612222
 20
612.91428591363865
 30
0.0
 40
18.0
  1
9
 50
90.0
  7
ROOMS
  0
TEXT
  5
3C5A
  8
FACILITY
 62
     0
 10
364.31326530612222
 20
632.95000019935298
 30
0.0
 40
13.5
  1
1
 50
90.0
  7
ROOMS
  0
LINE
  5
3C5B
  8
FACILITY
 10
366.56326530612222
 20
630.05714305649576
 30
0.0
 11
366.56326530612222
 21
639.05714305649587
 31
0.0
  0
TEXT
  5
3C5C
  8
FACILITY
 62
     0
 10
382.31326530612222
 20
630.05714305649576
 30
0.0
 40
13.5
  1
2
 50
90.0
  7
ROOMS
  0
TEXT
  5
3C5D
  8
FACILITY
 62
     0
 10
375.56326530612222
 20
642.91428591363865
 30
0.0
 40
18.0
  1
"
 50
90.0
  7
ROOMS
  0
ENDBLK
  5
3C5F
  8
0
  0
BLOCK
  8
0
  2
*U258
 70
     1
 10
0.0
 20
0.0
 30
0.0
  3
*U258
  1

  0
TEXT
  5
3C61
  8
FACILITY
 62
     0
 10
6332.3058218200331
 20
338.73061224489697
 30
0.0
 40
18.0
  1
25'-7
  7
ROOMS
  0
TEXT
  5
3C62
  8
FACILITY
 62
     0
 10
6416.6272503914606
 20
349.98061224489697
 30
0.0
 40
13.5
  1
1
  7
ROOMS
  0
LINE
  5
3C63
  8
FACILITY
 10
6413.7343932486046
 20
347.73061224489697
 30
0.0
 11
6422.7343932486046
 21
347.73061224489697
 31
0.0
  0
TEXT
  5
3C64
  8
FACILITY
 62
     0
 10
6413.7343932486046
 20
331.98061224489697
 30
0.0
 40
13.5
  1
2
  7
ROOMS
  0
TEXT
  5
3C65
  8
FACILITY
 62
     0
 10
6426.5915361057478
 20
338.73061224489697
 30
0.0
 40
18.0
  1
"
  7
ROOMS
  0
ENDBLK
  5
3C67
  8
0
  0
BLOCK
  8
0
  2
*U259
 70
     1
 10
0.0
 20
0.0
 30
0.0
  3
*U259
  1

  0
TEXT
  5
3C69
  8
FACILITY
 62
     0
 10
6024.8058218200331
 20
338.73061224489697
 30
0.0
 40
18.0
  1
25'-7
  7
ROOMS
  0
TEXT
  5
3C6A
  8
FACILITY
 62
     0
 10
6109.1272503914624
 20
349.98061224489697
 30
0.0
 40
13.5
  1
1
  7
ROOMS
  0
LINE
  5
3C6B
  8
FACILITY
 10
6106.2343932486037
 20
347.73061224489697
 30
0.0
 11
6115.2343932486046
 21
347.73061224489697
 31
0.0
  0
TEXT
  5
3C6C
  8
FACILITY
 62
     0
 10
6106.2343932486037
 20
331.98061224489697
 30
0.0
 40
13.5
  1
2
  7
ROOMS
  0
TEXT
  5
3C6D
  8
FACILITY
 62
     0
 10
6119.0915361057478
 20
338.73061224489697
 30
0.0
 40
18.0
  1
"
  7
ROOMS
  0
ENDBLK
  5
3C6F
  8
0
  0
BLOCK
  8
0
  2
*U260
 70
     1
 10
0.0
 20
0.0
 30
0.0
  3
*U260
  1

  0
TEXT
  5
3C71
  8
FACILITY
 62
     0
 10
5717.3058218200331
 20
338.73061224489697
 30
0.0
 40
18.0
  1
25'-7
  7
ROOMS
  0
TEXT
  5
3C72
  8
FACILITY
 62
     0
 10
5801.6272503914624
 20
349.98061224489697
 30
0.0
 40
13.5
  1
1
  7
ROOMS
  0
LINE
  5
3C73
  8
FACILITY
 10
5798.7343932486037
 20
347.73061224489697
 30
0.0
 11
5807.7343932486046
 21
347.73061224489697
 31
0.0
  0
TEXT
  5
3C74
  8
FACILITY
 62
     0
 10
5798.7343932486037
 20
331.98061224489697
 30
0.0
 40
13.5
  1
2
  7
ROOMS
  0
TEXT
  5
3C75
  8
FACILITY
 62
     0
 10
5811.5915361057478
 20
338.73061224489697
 30
0.0
 40
18.0
  1
"
  7
ROOMS
  0
ENDBLK
  5
3C77
  8
0
  0
BLOCK
  8
0
  2
*U261
 70
     1
 10
0.0
 20
0.0
 30
0.0
  3
*U261
  1

  0
TEXT
  5
3C79
  8
FACILITY
 62
     0
 10
3309.8058218200331
 20
338.73061224489697
 30
0.0
 40
18.0
  1
25'-7
  7
ROOMS
  0
TEXT
  5
3C7A
  8
FACILITY
 62
     0
 10
3394.1272503914611
 20
349.98061224489697
 30
0.0
 40
13.5
  1
1
  7
ROOMS
  0
LINE
  5
3C7B
  8
FACILITY
 10
3391.2343932486042
 20
347.73061224489697
 30
0.0
 11
3400.2343932486042
 21
347.73061224489697
 31
0.0
  0
TEXT
  5
3C7C
  8
FACILITY
 62
     0
 10
3391.2343932486042
 20
331.98061224489697
 30
0.0
 40
13.5
  1
2
  7
ROOMS
  0
TEXT
  5
3C7D
  8
FACILITY
 62
     0
 10
3404.0915361057469
 20
338.73061224489697
 30
0.0
 40
18.0
  1
"
  7
ROOMS
  0
ENDBLK
  5
3C7F
  8
0
  0
BLOCK
  8
0
  2
*U262
 70
     1
 10
0.0
 20
0.0
 30
0.0
  3
*U262
  1

  0
TEXT
  5
3C81
  8
FACILITY
 62
     0
 10
3002.3058218200331
 20
338.73061224489697
 30
0.0
 40
18.0
  1
25'-7
  7
ROOMS
  0
TEXT
  5
3C82
  8
FACILITY
 62
     0
 10
3086.627250391462
 20
349.98061224489697
 30
0.0
 40
13.5
  1
1
  7
ROOMS
  0
LINE
  5
3C83
  8
FACILITY
 10
3083.7343932486042
 20
347.73061224489697
 30
0.0
 11
3092.7343932486042
 21
347.73061224489697
 31
0.0
  0
TEXT
  5
3C84
  8
FACILITY
 62
     0
 10
3083.7343932486042
 20
331.98061224489697
 30
0.0
 40
13.5
  1
2
  7
ROOMS
  0
TEXT
  5
3C85
  8
FACILITY
 62
     0
 10
3096.5915361057469
 20
338.73061224489697
 30
0.0
 40
18.0
  1
"
  7
ROOMS
  0
ENDBLK
  5
3C87
  8
0
  0
BLOCK
  8
0
  2
*U263
 70
     1
 10
0.0
 20
0.0
 30
0.0
  3
*U263
  1

  0
TEXT
  5
3C89
  8
FACILITY
 62
     0
 10
2387.3058218200331
 20
338.73061224489697
 30
0.0
 40
18.0
  1
25'-7
  7
ROOMS
  0
TEXT
  5
3C8A
  8
FACILITY
 62
     0
 10
2471.627250391462
 20
349.98061224489697
 30
0.0
 40
13.5
  1
1
  7
ROOMS
  0
LINE
  5
3C8B
  8
FACILITY
 10
2468.7343932486042
 20
347.73061224489697
 30
0.0
 11
2477.7343932486051
 21
347.73061224489697
 31
0.0
  0
TEXT
  5
3C8C
  8
FACILITY
 62
     0
 10
2468.7343932486042
 20
331.98061224489697
 30
0.0
 40
13.5
  1
2
  7
ROOMS
  0
TEXT
  5
3C8D
  8
FACILITY
 62
     0
 10
2481.5915361057469
 20
338.73061224489697
 30
0.0
 40
18.0
  1
"
  7
ROOMS
  0
ENDBLK
  5
3C8F
  8
0
  0
BLOCK
  8
0
  2
*U264
 70
     1
 10
0.0
 20
0.0
 30
0.0
  3
*U264
  1

  0
TEXT
  5
3C91
  8
FACILITY
 62
     0
 10
2694.8058218200331
 20
338.73061224489697
 30
0.0
 40
18.0
  1
25'-7
  7
ROOMS
  0
TEXT
  5
3C92
  8
FACILITY
 62
     0
 10
2779.127250391462
 20
349.98061224489697
 30
0.0
 40
13.5
  1
1
  7
ROOMS
  0
LINE
  5
3C93
  8
FACILITY
 10
2776.2343932486042
 20
347.73061224489697
 30
0.0
 11
2785.2343932486042
 21
347.73061224489697
 31
0.0
  0
TEXT
  5
3C94
  8
FACILITY
 62
     0
 10
2776.2343932486042
 20
331.98061224489697
 30
0.0
 40
13.5
  1
2
  7
ROOMS
  0
TEXT
  5
3C95
  8
FACILITY
 62
     0
 10
2789.0915361057469
 20
338.73061224489697
 30
0.0
 40
18.0
  1
"
  7
ROOMS
  0
ENDBLK
  5
3C97
  8
0
  0
BLOCK
  8
0
  2
*U265
 70
     1
 10
0.0
 20
0.0
 30
0.0
  3
*U265
  1

  0
TEXT
  5
3C99
  8
FACILITY
 62
     0
 10
6639.8058218200331
 20
338.73061224489697
 30
0.0
 40
18.0
  1
25'-7
  7
ROOMS
  0
TEXT
  5
3C9A
  8
FACILITY
 62
     0
 10
6724.1272503914606
 20
349.98061224489697
 30
0.0
 40
13.5
  1
1
  7
ROOMS
  0
LINE
  5
3C9B
  8
FACILITY
 10
6721.2343932486046
 20
347.73061224489697
 30
0.0
 11
6730.2343932486046
 21
347.73061224489697
 31
0.0
  0
TEXT
  5
3C9C
  8
FACILITY
 62
     0
 10
6721.2343932486046
 20
331.98061224489697
 30
0.0
 40
13.5
  1
2
  7
ROOMS
  0
TEXT
  5
3C9D
  8
FACILITY
 62
     0
 10
6734.0915361057478
 20
338.73061224489697
 30
0.0
 40
18.0
  1
"
  7
ROOMS
  0
ENDBLK
  5
3C9F
  8
0
  0
BLOCK
  8
0
  2
*U266
 70
     1
 10
0.0
 20
0.0
 30
0.0
  3
*U266
  1

  0
TEXT
  5
3CA1
  8
FACILITY
 62
     0
 10
2670.2157758133681
 20
4353.3424010049594
 30
0.0
 40
18.0
  1
10'-2
  7
ROOMS
  0
TEXT
  5
3CA2
  8
FACILITY
 62
     0
 10
2748.5157758133678
 20
4364.4424010049597
 30
0.0
 40
12.6
  1
3
  7
ROOMS
  0
LINE
  5
3CA3
  8
FACILITY
 10
2748.2157758133681
 20
4362.3424010049594
 30
0.0
 11
2757.2157758133681
 21
4362.3424010049594
 31
0.0
  0
TEXT
  5
3CA4
  8
FACILITY
 62
     0
 10
2748.2157758133681
 20
4347.6424010049604
 30
0.0
 40
12.6
  1
4
  7
ROOMS
  0
TEXT
  5
3CA5
  8
FACILITY
 62
     0
 10
2760.815775813368
 20
4353.3424010049594
 30
0.0
 40
18.0
  1
"
  7
ROOMS
  0
ENDBLK
  5
3CA7
  8
0
  0
BLOCK
  8
0
  2
*U267
 70
     1
 10
0.0
 20
0.0
 30
0.0
  3
*U267
  1

  0
TEXT
  5
3CA9
  8
FACILITY
 62
     0
 10
1381.784547005248
 20
4586.3554622294487
 30
0.0
 40
18.0
  1
180'-9 
  7
ROOMS
  0
TEXT
  5
3CAA
  8
FACILITY
 62
     0
 10
1493.2131184338191
 20
4597.4554622294499
 30
0.0
 40
12.6
  1
1
  7
ROOMS
  0
LINE
  5
3CAB
  8
FACILITY
 10
1493.2131184338191
 20
4595.3554622294487
 30
0.0
 11
1496.21311843382
 21
4595.3554622294487
 31
0.0
  0
TEXT
  5
3CAC
  8
FACILITY
 62
     0
 10
1494.71311843382
 20
4593.2554622294501
 30
0.0
 40
12.6
  1

  7
ROOMS
  0
TEXT
  5
3CAD
  8
FACILITY
 62
     0
 10
1499.8131184338199
 20
4586.3554622294487
 30
0.0
 40
18.0
  1
2"
  7
ROOMS
  0
ENDBLK
  5
3CAF
  8
0
  0
BLOCK
  8
0
  2
*U268
 70
     1
 10
0.0
 20
0.0
 30
0.0
  3
*U268
  1

  0
TEXT
  5
3CB1
  8
FACILITY
 62
     0
 10
367.37557462083339
 20
2422.4456169224359
 30
0.0
 40
18.0
  1
11'-7
 50
40.705132735275811
  7
ROOMS
  0
TEXT
  5
3CB2
  8
FACILITY
 62
     0
 10
418.76251291259638
 20
2481.4935689125182
 30
0.0
 40
13.5
  1
1
 50
40.705132735275811
  7
ROOMS
  0
LINE
  5
3CB3
  8
FACILITY
 10
418.03688179760098
 20
2477.9012741119859
 30
0.0
 11
424.85956504285599
 21
2483.7707709673318
 31
0.0
  0
TEXT
  5
3CB4
  8
FACILITY
 62
     0
 10
428.30850129445628
 20
2465.9615784327889
 30
0.0
 40
13.5
  1
2
 50
40.705132735275811
  7
ROOMS
  0
TEXT
  5
3CB5
  8
FACILITY
 62
     0
 10
433.65306900331132
 20
2479.4635863743679
 30
0.0
 40
18.0
  1
"
 50
40.705132735275811
  7
ROOMS
  0
ENDBLK
  5
3CB7
  8
0
  0
BLOCK
  8
0
  2
*U269
 70
     1
 10
0.0
 20
0.0
 30
0.0
  3
*U269
  1

  0
TEXT
  5
3CB9
  8
FACILITY
 62
     0
 10
2325.4856660076812
 20
4106.9912144081654
 30
0.0
 40
18.0
  1
11'-7
 50
40.705132735326778
  7
ROOMS
  0
TEXT
  5
3CBA
  8
FACILITY
 62
     0
 10
2376.8726042993908
 20
4166.0391663982928
 30
0.0
 40
13.5
  1
1
 50
40.705132735326778
  7
ROOMS
  0
LINE
  5
3CBB
  8
FACILITY
 10
2376.146973184399
 20
4162.4468715977609
 30
0.0
 11
2382.9696564296478
 21
4168.3163684531128
 31
0.0
  0
TEXT
  5
3CBC
  8
FACILITY
 62
     0
 10
2386.4185926812652
 20
4150.5071759185739
 30
0.0
 40
13.5
  1
2
 50
40.705132735326778
  7
ROOMS
  0
TEXT
  5
3CBD
  8
FACILITY
 62
     0
 10
2391.7631603901082
 20
4164.0091838601556
 30
0.0
 40
18.0
  1
"
 50
40.705132735326778
  7
ROOMS
  0
ENDBLK
  5
3CBF
  8
0
  0
BLOCK
  8
0
  2
*U270
 70
     1
 10
0.0
 20
0.0
 30
0.0
  3
*U270
  1

  0
TEXT
  5
3CC1
  8
FACILITY
 62
     0
 10
231.56326530612199
 20
1397.464285913708
 30
0.0
 40
18.0
  1
132'-5
 50
90.0
  7
ROOMS
  0
TEXT
  5
3CC2
  8
FACILITY
 62
     0
 10
220.31326530612199
 20
1495.5000001994219
 30
0.0
 40
13.5
  1
1
 50
90.0
  7
ROOMS
  0
LINE
  5
3CC3
  8
FACILITY
 10
222.56326530612199
 20
1492.6071430565651
 30
0.0
 11
222.56326530612199
 21
1501.6071430565651
 31
0.0
  0
TEXT
  5
3CC4
  8
FACILITY
 62
     0
 10
238.31326530612199
 20
1492.6071430565651
 30
0.0
 40
13.5
  1
2
 50
90.0
  7
ROOMS
  0
TEXT
  5
3CC5
  8
FACILITY
 62
     0
 10
231.56326530612199
 20
1505.464285913707
 30
0.0
 40
18.0
  1
"
 50
90.0
  7
ROOMS
  0
ENDBLK
  5
3CC7
  8
0
  0
BLOCK
  8
0
  2
*U271
 70
     1
 10
0.0
 20
0.0
 30
0.0
  3
*U271
  1

  0
TEXT
  5
3CC9
  8
FACILITY
 62
     0
 10
231.56326530612179
 20
3125.460384176019
 30
0.0
 40
18.0
  1
155'-6
 50
90.0
  7
ROOMS
  0
TEXT
  5
3CCA
  8
FACILITY
 62
     0
 10
220.31326530612179
 20
3223.4960984617342
 30
0.0
 40
13.5
  1
1
 50
90.0
  7
ROOMS
  0
LINE
  5
3CCB
  8
FACILITY
 10
222.56326530612179
 20
3220.6032413188759
 30
0.0
 11
222.56326530612179
 21
3229.6032413188759
 31
0.0
  0
TEXT
  5
3CCC
  8
FACILITY
 62
     0
 10
238.31326530612179
 20
3220.6032413188759
 30
0.0
 40
13.5
  1
2
 50
90.0
  7
ROOMS
  0
TEXT
  5
3CCD
  8
FACILITY
 62
     0
 10
231.56326530612179
 20
3233.460384176019
 30
0.0
 40
18.0
  1
"
 50
90.0
  7
ROOMS
  0
ENDBLK
  5
3CCF
  8
0
  0
BLOCK
  8
0
  2
*U272
 70
     1
 10
0.0
 20
0.0
 30
0.0
  3
*U272
  1

  0
TEXT
  5
3CD1
  8
FACILITY
 62
     0
 10
3309.8058218200331
 20
4352.7228091682236
 30
0.0
 40
18.0
  1
25'-7
  7
ROOMS
  0
TEXT
  5
3CD2
  8
FACILITY
 62
     0
 10
3394.1272503914611
 20
4363.9728091682236
 30
0.0
 40
13.5
  1
1
  7
ROOMS
  0
LINE
  5
3CD3
  8
FACILITY
 10
3391.2343932486042
 20
4361.7228091682236
 30
0.0
 11
3400.2343932486042
 21
4361.7228091682236
 31
0.0
  0
TEXT
  5
3CD4
  8
FACILITY
 62
     0
 10
3391.2343932486042
 20
4345.9728091682236
 30
0.0
 40
13.5
  1
2
  7
ROOMS
  0
TEXT
  5
3CD5
  8
FACILITY
 62
     0
 10
3404.0915361057469
 20
4352.7228091682236
 30
0.0
 40
18.0
  1
"
  7
ROOMS
  0
ENDBLK
  5
3CD7
  8
0
  0
BLOCK
  8
0
  2
*U273
 70
     1
 10
0.0
 20
0.0
 30
0.0
  3
*U273
  1

  0
TEXT
  5
3CD9
  8
FACILITY
 62
     0
 10
7583.7465571219
 20
3892.4332496642101
 30
0.0
 40
18.0
  1
38'-10
 50
314.99999999999989
  7
ROOMS
  0
TEXT
  5
3CDA
  8
FACILITY
 62
     0
 10
7661.0232267801439
 20
3831.066482582663
 30
0.0
 40
13.5
  1
1
 50
314.99999999999989
  7
ROOMS
  0
LINE
  5
3CDB
  8
FACILITY
 10
7657.3866776197556
 20
3831.5210512277122
 30
0.0
 11
7663.7506386504347
 21
3825.1570901970322
 31
0.0
  0
TEXT
  5
3CDC
  8
FACILITY
 62
     0
 10
7646.2497458160678
 20
3820.3841194240231
 30
0.0
 40
13.5
  1
2
 50
314.99999999999989
  7
ROOMS
  0
TEXT
  5
3CDD
  8
FACILITY
 62
     0
 10
7660.1140894900473
 20
3816.0657172960618
 30
0.0
 40
18.0
  1
"
 50
314.99999999999989
  7
ROOMS
  0
ENDBLK
  5
3CDF
  8
0
  0
BLOCK
  8
0
  2
*U274
 70
     1
 10
0.0
 20
0.0
 30
0.0
  3
*U274
  1

  0
TEXT
  5
3CE1
  8
FACILITY
 62
     0
 10
7913.7465571218981
 20
3562.4332496642101
 30
0.0
 40
18.0
  1
38'-10
 50
314.99999999999989
  7
ROOMS
  0
TEXT
  5
3CE2
  8
FACILITY
 62
     0
 10
7991.0232267801421
 20
3501.066482582663
 30
0.0
 40
13.5
  1
1
 50
314.99999999999989
  7
ROOMS
  0
LINE
  5
3CE3
  8
FACILITY
 10
7987.3866776197538
 20
3501.5210512277108
 30
0.0
 11
7993.7506386504338
 21
3495.1570901970322
 31
0.0
  0
TEXT
  5
3CE4
  8
FACILITY
 62
     0
 10
7976.249745816066
 20
3490.3841194240231
 30
0.0
 40
13.5
  1
2
 50
314.99999999999989
  7
ROOMS
  0
TEXT
  5
3CE5
  8
FACILITY
 62
     0
 10
7990.1140894900454
 20
3486.0657172960618
 30
0.0
 40
18.0
  1
"
 50
314.99999999999989
  7
ROOMS
  0
ENDBLK
  5
3CE7
  8
0
  0
BLOCK
  8
0
  2
*U275
 70
     1
 10
0.0
 20
0.0
 30
0.0
  3
*U275
  1

  0
TEXT
  5
3CE9
  8
FACILITY
 62
     0
 10
8243.7465571218963
 20
3232.4332496642101
 30
0.0
 40
18.0
  1
38'-10
 50
314.99999999999989
  7
ROOMS
  0
TEXT
  5
3CEA
  8
FACILITY
 62
     0
 10
8321.0232267801402
 20
3171.0664825826639
 30
0.0
 40
13.5
  1
1
 50
314.99999999999989
  7
ROOMS
  0
LINE
  5
3CEB
  8
FACILITY
 10
8317.3866776197538
 20
3171.5210512277122
 30
0.0
 11
8323.7506386504319
 21
3165.1570901970331
 31
0.0
  0
TEXT
  5
3CEC
  8
FACILITY
 62
     0
 10
8306.2497458160651
 20
3160.384119424024
 30
0.0
 40
13.5
  1
2
 50
314.99999999999989
  7
ROOMS
  0
TEXT
  5
3CED
  8
FACILITY
 62
     0
 10
8320.1140894900436
 20
3156.0657172960641
 30
0.0
 40
18.0
  1
"
 50
314.99999999999989
  7
ROOMS
  0
ENDBLK
  5
3CEF
  8
0
  0
BLOCK
  8
0
  2
*U276
 70
     1
 10
0.0
 20
0.0
 30
0.0
  3
*U276
  1

  0
TEXT
  5
3CF1
  8
FACILITY
 62
     0
 10
8573.7465571218945
 20
2902.4332496642101
 30
0.0
 40
18.0
  1
38'-10
 50
314.99999999999989
  7
ROOMS
  0
TEXT
  5
3CF2
  8
FACILITY
 62
     0
 10
8651.0232267801384
 20
2841.066482582663
 30
0.0
 40
13.5
  1
1
 50
314.99999999999989
  7
ROOMS
  0
LINE
  5
3CF3
  8
FACILITY
 10
8647.3866776197538
 20
2841.5210512277122
 30
0.0
 11
8653.7506386504301
 21
2835.1570901970322
 31
0.0
  0
TEXT
  5
3CF4
  8
FACILITY
 62
     0
 10
8636.2497458160633
 20
2830.3841194240231
 30
0.0
 40
13.5
  1
2
 50
314.99999999999989
  7
ROOMS
  0
TEXT
  5
3CF5
  8
FACILITY
 62
     0
 10
8650.1140894900418
 20
2826.0657172960618
 30
0.0
 40
18.0
  1
"
 50
314.99999999999989
  7
ROOMS
  0
ENDBLK
  5
3CF7
  8
0
  0
BLOCK
  8
0
  2
*U277
 70
     1
 10
0.0
 20
0.0
 30
0.0
  3
*U277
  1

  0
TEXT
  5
3CF9
  8
FACILITY
 62
     0
 10
537.16754269500541
 20
2663.1058477573201
 30
0.0
 40
18.0
  1
36'-3
 50
40.705132735275733
  7
ROOMS
  0
TEXT
  5
3CFA
  8
FACILITY
 62
     0
 10
593.75271584029633
 20
2726.6257973514739
 30
0.0
 40
13.5
  1
1
 50
40.705132735275733
  7
ROOMS
  0
LINE
  5
3CFB
  8
FACILITY
 10
593.02708472530082
 20
2723.033502550943
 30
0.0
 11
599.84976797055594
 21
2728.902999406288
 31
0.0
  0
TEXT
  5
3CFC
  8
FACILITY
 62
     0
 10
603.29870422215606
 20
2711.093806871746
 30
0.0
 40
13.5
  1
2
 50
40.705132735275733
  7
ROOMS
  0
TEXT
  5
3CFD
  8
FACILITY
 62
     0
 10
608.6432719310111
 20
2724.5958148133241
 30
0.0
 40
18.0
  1
"
 50
40.705132735275733
  7
ROOMS
  0
ENDBLK
  5
3CFF
  8
0
  0
BLOCK
  8
0
  2
*U278
 70
     1
 10
0.0
 20
0.0
 30
0.0
  3
*U278
  1

  0
TEXT
  5
3D01
  8
FACILITY
 62
     0
 10
867.30960417373683
 20
2947.1242789243379
 30
0.0
 40
18.0
  1
36'-3
 50
40.705132735275733
  7
ROOMS
  0
TEXT
  5
3D02
  8
FACILITY
 62
     0
 10
923.89477731902775
 20
3010.644228518493
 30
0.0
 40
13.5
  1
1
 50
40.705132735275733
  7
ROOMS
  0
LINE
  5
3D03
  8
FACILITY
 10
923.16914620403224
 20
3007.0519337179612
 30
0.0
 11
929.99182944928737
 21
3012.9214305733071
 31
0.0
  0
TEXT
  5
3D04
  8
FACILITY
 62
     0
 10
933.4407657008876
 20
2995.1122380387642
 30
0.0
 40
13.5
  1
2
 50
40.705132735275733
  7
ROOMS
  0
TEXT
  5
3D05
  8
FACILITY
 62
     0
 10
938.78533340974252
 20
3008.6142459803418
 30
0.0
 40
18.0
  1
"
 50
40.705132735275733
  7
ROOMS
  0
ENDBLK
  5
3D07
  8
0
  0
BLOCK
  8
0
  2
*U279
 70
     1
 10
0.0
 20
0.0
 30
0.0
  3
*U279
  1

  0
TEXT
  5
3D09
  8
FACILITY
 62
     0
 10
1197.45166565247
 20
3231.142710091352
 30
0.0
 40
18.0
  1
36'-3
 50
40.705132735275733
  7
ROOMS
  0
TEXT
  5
3D0A
  8
FACILITY
 62
     0
 10
1254.036838797761
 20
3294.6626596855058
 30
0.0
 40
13.5
  1
1
 50
40.705132735275733
  7
ROOMS
  0
LINE
  5
3D0B
  8
FACILITY
 10
1253.3112076827661
 20
3291.0703648849749
 30
0.0
 11
1260.1338909280209
 21
3296.9398617403199
 31
0.0
  0
TEXT
  5
3D0C
  8
FACILITY
 62
     0
 10
1263.5828271796211
 20
3279.1306692057778
 30
0.0
 40
13.5
  1
2
 50
40.705132735275733
  7
ROOMS
  0
TEXT
  5
3D0D
  8
FACILITY
 62
     0
 10
1268.9273948884761
 20
3292.6326771473559
 30
0.0
 40
18.0
  1
"
 50
40.705132735275733
  7
ROOMS
  0
ENDBLK
  5
3D0F
  8
0
  0
BLOCK
  8
0
  2
*U280
 70
     1
 10
0.0
 20
0.0
 30
0.0
  3
*U280
  1

  0
TEXT
  5
3D11
  8
FACILITY
 62
     0
 10
1527.593727131203
 20
3515.161141258367
 30
0.0
 40
18.0
  1
36'-3
 50
40.705132735275733
  7
ROOMS
  0
TEXT
  5
3D12
  8
FACILITY
 62
     0
 10
1584.178900276494
 20
3578.6810908525222
 30
0.0
 40
13.5
  1
1
 50
40.705132735275733
  7
ROOMS
  0
LINE
  5
3D13
  8
FACILITY
 10
1583.4532691614979
 20
3575.0887960519908
 30
0.0
 11
1590.275952406753
 21
3580.9582929073358
 31
0.0
  0
TEXT
  5
3D14
  8
FACILITY
 62
     0
 10
1593.7248886583541
 20
3563.1491003727938
 30
0.0
 40
13.5
  1
2
 50
40.705132735275733
  7
ROOMS
  0
TEXT
  5
3D15
  8
FACILITY
 62
     0
 10
1599.069456367208
 20
3576.6511083143719
 30
0.0
 40
18.0
  1
"
 50
40.705132735275733
  7
ROOMS
  0
ENDBLK
  5
3D17
  8
0
  0
BLOCK
  8
0
  2
*U281
 70
     1
 10
0.0
 20
0.0
 30
0.0
  3
*U281
  1

  0
TEXT
  5
3D19
  8
FACILITY
 62
     0
 10
473.12716492223268
 20
2513.4228181803819
 30
0.0
 40
18.0
  1
11'-7
 50
40.705132735261337
  7
ROOMS
  0
TEXT
  5
3D1A
  8
FACILITY
 62
     0
 10
524.51410321401067
 20
2572.470770170451
 30
0.0
 40
13.5
  1
1
 50
40.705132735261337
  7
ROOMS
  0
LINE
  5
3D1B
  8
FACILITY
 10
523.78847209901437
 20
2568.8784753699192
 30
0.0
 11
530.61115534427086
 21
2574.7479722252629
 31
0.0
  0
TEXT
  5
3D1C
  8
FACILITY
 62
     0
 10
534.06009159586665
 20
2556.9387796907199
 30
0.0
 40
13.5
  1
2
 50
40.705132735261337
  7
ROOMS
  0
TEXT
  5
3D1D
  8
FACILITY
 62
     0
 10
539.40465930472499
 20
2570.4407876322971
 30
0.0
 40
18.0
  1
"
 50
40.705132735261337
  7
ROOMS
  0
ENDBLK
  5
3D1F
  8
0
  0
BLOCK
  8
0
  2
*U282
 70
     1
 10
0.0
 20
0.0
 30
0.0
  3
*U282
  1

  0
TEXT
  5
3D21
  8
FACILITY
 62
     0
 10
2431.2372563090848
 20
4197.9684156661488
 30
0.0
 40
18.0
  1
11'-7
 50
40.705132735326643
  7
ROOMS
  0
TEXT
  5
3D22
  8
FACILITY
 62
     0
 10
2482.6241946007958
 20
4257.016367656277
 30
0.0
 40
13.5
  1
1
 50
40.705132735326643
  7
ROOMS
  0
LINE
  5
3D23
  8
FACILITY
 10
2481.8985634858041
 20
4253.4240728557443
 30
0.0
 11
2488.7212467310528
 21
4259.2935697110961
 31
0.0
  0
TEXT
  5
3D24
  8
FACILITY
 62
     0
 10
2492.1701829826702
 20
4241.4843771765572
 30
0.0
 40
13.5
  1
2
 50
40.705132735326643
  7
ROOMS
  0
TEXT
  5
3D25
  8
FACILITY
 62
     0
 10
2497.5147506915132
 20
4254.986385118139
 30
0.0
 40
18.0
  1
"
 50
40.705132735326643
  7
ROOMS
  0
ENDBLK
  5
3D27
  8
0
  0
BLOCK
  8
0
  2
*U283
 70
     1
 10
0.0
 20
0.0
 30
0.0
  3
*U283
  1

  0
TEXT
  5
3D29
  8
FACILITY
 62
     0
 10
2792.909139817812
 20
4353.3424010049594
 30
0.0
 40
18.0
  1
10'-2
  7
ROOMS
  0
TEXT
  5
3D2A
  8
FACILITY
 62
     0
 10
2871.2091398178118
 20
4364.4424010049597
 30
0.0
 40
12.6
  1
3
  7
ROOMS
  0
LINE
  5
3D2B
  8
FACILITY
 10
2870.909139817812
 20
4362.3424010049594
 30
0.0
 11
2879.909139817812
 21
4362.3424010049594
 31
0.0
  0
TEXT
  5
3D2C
  8
FACILITY
 62
     0
 10
2870.909139817812
 20
4347.6424010049604
 30
0.0
 40
12.6
  1
4
  7
ROOMS
  0
TEXT
  5
3D2D
  8
FACILITY
 62
     0
 10
2883.509139817812
 20
4353.3424010049594
 30
0.0
 40
18.0
  1
"
  7
ROOMS
  0
ENDBLK
  5
3D2F
  8
0
  0
BLOCK
  8
0
  2
*U284
 70
     1
 10
0.0
 20
0.0
 30
0.0
  3
*U284
  1

  0
TEXT
  5
3D31
  8
FACILITY
 62
     0
 10
3390.0890909839268
 20
492.23248446341051
 30
0.0
 40
18.0
  1
4'-3 
  7
ROOMS
  0
TEXT
  5
3D32
  8
FACILITY
 62
     0
 10
3470.9605195553559
 20
503.33248446341059
 30
0.0
 40
12.6
  1
3
  7
ROOMS
  0
LINE
  5
3D33
  8
FACILITY
 10
3470.6605195553561
 20
501.23248446341057
 30
0.0
 11
3479.6605195553561
 21
501.23248446341057
 31
0.0
  0
TEXT
  5
3D34
  8
FACILITY
 62
     0
 10
3470.6605195553561
 20
486.53248446341053
 30
0.0
 40
12.6
  1
4
  7
ROOMS
  0
TEXT
  5
3D35
  8
FACILITY
 62
     0
 10
3483.260519555356
 20
492.23248446341051
 30
0.0
 40
18.0
  1
"
  7
ROOMS
  0
ENDBLK
  5
3D37
  8
0
  0
BLOCK
  8
0
  2
*U285
 70
     1
 10
0.0
 20
0.0
 30
0.0
  3
*U285
  1

  0
TEXT
  5
3D39
  8
FACILITY
 62
     0
 10
3236.7927141509931
 20
492.23248446341051
 30
0.0
 40
18.0
  1
4'-3 
  7
ROOMS
  0
TEXT
  5
3D3A
  8
FACILITY
 62
     0
 10
3317.6641427224222
 20
503.33248446341059
 30
0.0
 40
12.6
  1
3
  7
ROOMS
  0
LINE
  5
3D3B
  8
FACILITY
 10
3317.3641427224211
 20
501.23248446341057
 30
0.0
 11
3326.3641427224211
 21
501.23248446341057
 31
0.0
  0
TEXT
  5
3D3C
  8
FACILITY
 62
     0
 10
3317.3641427224211
 20
486.53248446341053
 30
0.0
 40
12.6
  1
4
  7
ROOMS
  0
TEXT
  5
3D3D
  8
FACILITY
 62
     0
 10
3329.964142722421
 20
492.23248446341051
 30
0.0
 40
18.0
  1
"
  7
ROOMS
  0
ENDBLK
  5
3D3F
  8
0
  0
BLOCK
  8
0
  2
*U286
 70
     1
 10
0.0
 20
0.0
 30
0.0
  3
*U286
  1

  0
TEXT
  5
3D41
  8
FACILITY
 62
     0
 10
3970.4129646771762
 20
467.57122448976901
 30
0.0
 40
18.0
  1
3'-4"
  7
ROOMS
  0
TEXT
  5
3D42
  8
FACILITY
 62
     0
 10
3963.127250391462
 20
434.14265306119751
 30
0.0
 40
18.0
  1
x7'-2"
  7
ROOMS
  0
ENDBLK
  5
3D44
  8
0
  0
BLOCK
  8
0
  2
*U287
 70
     1
 10
0.0
 20
0.0
 30
0.0
  3
*U287
  1

  0
TEXT
  5
3D46
  8
FACILITY
 62
     0
 10
3082.5890909839268
 20
492.23248446341051
 30
0.0
 40
18.0
  1
4'-3 
  7
ROOMS
  0
TEXT
  5
3D47
  8
FACILITY
 62
     0
 10
3163.4605195553559
 20
503.33248446341059
 30
0.0
 40
12.6
  1
3
  7
ROOMS
  0
LINE
  5
3D48
  8
FACILITY
 10
3163.1605195553561
 20
501.23248446341057
 30
0.0
 11
3172.1605195553561
 21
501.23248446341057
 31
0.0
  0
TEXT
  5
3D49
  8
FACILITY
 62
     0
 10
3163.1605195553561
 20
486.53248446341053
 30
0.0
 40
12.6
  1
4
  7
ROOMS
  0
TEXT
  5
3D4A
  8
FACILITY
 62
     0
 10
3175.760519555356
 20
492.23248446341051
 30
0.0
 40
18.0
  1
"
  7
ROOMS
  0
ENDBLK
  5
3D4C
  8
0
  0
BLOCK
  8
0
  2
*U288
 70
     1
 10
0.0
 20
0.0
 30
0.0
  3
*U288
  1

  0
TEXT
  5
3D4E
  8
FACILITY
 62
     0
 10
2929.2927141509931
 20
492.23248446341051
 30
0.0
 40
18.0
  1
4'-3 
  7
ROOMS
  0
TEXT
  5
3D4F
  8
FACILITY
 62
     0
 10
3010.1641427224208
 20
503.33248446341059
 30
0.0
 40
12.6
  1
3
  7
ROOMS
  0
LINE
  5
3D50
  8
FACILITY
 10
3009.8641427224211
 20
501.23248446341057
 30
0.0
 11
3018.8641427224211
 21
501.23248446341057
 31
0.0
  0
TEXT
  5
3D51
  8
FACILITY
 62
     0
 10
3009.8641427224211
 20
486.53248446341053
 30
0.0
 40
12.6
  1
4
  7
ROOMS
  0
TEXT
  5
3D52
  8
FACILITY
 62
     0
 10
3022.464142722421
 20
492.23248446341051
 30
0.0
 40
18.0
  1
"
  7
ROOMS
  0
ENDBLK
  5
3D54
  8
0
  0
BLOCK
  8
0
  2
*U289
 70
     1
 10
0.0
 20
0.0
 30
0.0
  3
*U289
  1

  0
TEXT
  5
3D56
  8
FACILITY
 62
     0
 10
2775.0890909839268
 20
492.23248446341051
 30
0.0
 40
18.0
  1
4'-3 
  7
ROOMS
  0
TEXT
  5
3D57
  8
FACILITY
 62
     0
 10
2855.9605195553559
 20
503.33248446341059
 30
0.0
 40
12.6
  1
3
  7
ROOMS
  0
LINE
  5
3D58
  8
FACILITY
 10
2855.6605195553561
 20
501.23248446341057
 30
0.0
 11
2864.6605195553561
 21
501.23248446341057
 31
0.0
  0
TEXT
  5
3D59
  8
FACILITY
 62
     0
 10
2855.6605195553561
 20
486.53248446341053
 30
0.0
 40
12.6
  1
4
  7
ROOMS
  0
TEXT
  5
3D5A
  8
FACILITY
 62
     0
 10
2868.260519555356
 20
492.23248446341051
 30
0.0
 40
18.0
  1
"
  7
ROOMS
  0
ENDBLK
  5
3D5C
  8
0
  0
BLOCK
  8
0
  2
*U290
 70
     1
 10
0.0
 20
0.0
 30
0.0
  3
*U290
  1

  0
TEXT
  5
3D5E
  8
FACILITY
 62
     0
 10
2621.7927141509931
 20
492.23248446341051
 30
0.0
 40
18.0
  1
4'-3 
  7
ROOMS
  0
TEXT
  5
3D5F
  8
FACILITY
 62
     0
 10
2702.6641427224208
 20
503.33248446341059
 30
0.0
 40
12.6
  1
3
  7
ROOMS
  0
LINE
  5
3D60
  8
FACILITY
 10
2702.3641427224211
 20
501.23248446341057
 30
0.0
 11
2711.3641427224211
 21
501.23248446341057
 31
0.0
  0
TEXT
  5
3D61
  8
FACILITY
 62
     0
 10
2702.3641427224211
 20
486.53248446341053
 30
0.0
 40
12.6
  1
4
  7
ROOMS
  0
TEXT
  5
3D62
  8
FACILITY
 62
     0
 10
2714.964142722421
 20
492.23248446341051
 30
0.0
 40
18.0
  1
"
  7
ROOMS
  0
ENDBLK
  5
3D64
  8
0
  0
BLOCK
  8
0
  2
*U291
 70
     1
 10
0.0
 20
0.0
 30
0.0
  3
*U291
  1

  0
TEXT
  5
3D66
  8
FACILITY
 62
     0
 10
2467.5890909839281
 20
492.23248446341051
 30
0.0
 40
18.0
  1
4'-3 
  7
ROOMS
  0
TEXT
  5
3D67
  8
FACILITY
 62
     0
 10
2548.4605195553559
 20
503.33248446341059
 30
0.0
 40
12.6
  1
3
  7
ROOMS
  0
LINE
  5
3D68
  8
FACILITY
 10
2548.1605195553561
 20
501.23248446341057
 30
0.0
 11
2557.1605195553561
 21
501.23248446341057
 31
0.0
  0
TEXT
  5
3D69
  8
FACILITY
 62
     0
 10
2548.1605195553561
 20
486.53248446341053
 30
0.0
 40
12.6
  1
4
  7
ROOMS
  0
TEXT
  5
3D6A
  8
FACILITY
 62
     0
 10
2560.760519555356
 20
492.23248446341051
 30
0.0
 40
18.0
  1
"
  7
ROOMS
  0
ENDBLK
  5
3D6C
  8
0
  0
BLOCK
  8
0
  2
*U292
 70
     1
 10
0.0
 20
0.0
 30
0.0
  3
*U292
  1

  0
TEXT
  5
3D6E
  8
FACILITY
 62
     0
 10
2314.2927141509931
 20
492.23248446341051
 30
0.0
 40
18.0
  1
4'-3 
  7
ROOMS
  0
TEXT
  5
3D6F
  8
FACILITY
 62
     0
 10
2395.1641427224208
 20
503.33248446341059
 30
0.0
 40
12.6
  1
3
  7
ROOMS
  0
LINE
  5
3D70
  8
FACILITY
 10
2394.8641427224211
 20
501.23248446341057
 30
0.0
 11
2403.8641427224211
 21
501.23248446341057
 31
0.0
  0
TEXT
  5
3D71
  8
FACILITY
 62
     0
 10
2394.8641427224211
 20
486.53248446341053
 30
0.0
 40
12.6
  1
4
  7
ROOMS
  0
TEXT
  5
3D72
  8
FACILITY
 62
     0
 10
2407.464142722421
 20
492.23248446341051
 30
0.0
 40
18.0
  1
"
  7
ROOMS
  0
ENDBLK
  5
3D74
  8
0
  0
BLOCK
  8
0
  2
*U293
 70
     1
 10
0.0
 20
0.0
 30
0.0
  3
*U293
  1

  0
TEXT
  5
3D76
  8
FACILITY
 62
     0
 10
5034.0723066413921
 20
1080.7832310719921
 30
0.0
 40
18.0
  1
12'-0"x
 50
90.0
  7
ROOMS
  0
TEXT
  5
3D77
  8
FACILITY
 62
     0
 10
5067.5008780699627
 20
1088.4975167862781
 30
0.0
 40
18.0
  1
12'-0"
 50
90.0
  7
ROOMS
  0
TEXT
  5
3D78
  8
FACILITY
 62
     0
 10
5100.9294494985343
 20
1041.7832310719921
 30
0.0
 40
18.0
  1
(CONST.OPG.)
 50
90.0
  7
ROOMS
  0
ENDBLK
  5
3D7A
  8
0
  0
ENDSEC
  0
SECTION
  2
ENTITIES
  0
LINE
  5
37
  8
FACILITY
 62
     7
 10
8647.9843932486037
 20
673.50000019935032
 30
0.0
 11
8397.9843932486037
 21
673.50000019935146
 31
0.0
  0
LINE
  5
39
  8
FACILITY
 62
     7
 10
497.48439324860368
 20
673.50000019935305
 30
0.0
 11
497.48439324860368
 21
1589.5000001993531
 31
0.0
  0
LINE
  5
3B
  8
FACILITY
 62
     7
 10
497.48439324859658
 20
4110.5000001994194
 30
0.0
 11
2902.9843932486028
 21
4110.5000001993467
 31
0.0
  0
LINE
  5
3D
  8
FACILITY
 62
     7
 10
8638.4843932486037
 20
4110.5000001993558
 30
0.0
 11
8638.4843932486037
 21
673.50000019934942
 31
0.0
  0
LINE
  5
3E
  8
FACILITY
 62
     7
 10
8647.9843932486037
 20
664.0000001993493
 30
0.0
 11
8397.9843932486037
 21
664.00000019935135
 31
0.0
  0
LINE
  5
3F
  8
FACILITY
 62
     7
 10
487.98439324860368
 20
664.00000019935305
 30
0.0
 11
487.98439324860368
 21
1589.5000001993531
 31
0.0
  0
LINE
  5
41
  8
FACILITY
 62
     7
 10
487.98439324859652
 20
4120.0000001993876
 30
0.0
 11
2902.9843932486042
 21
4120.0000001993512
 31
0.0
  0
LINE
  5
43
  8
FACILITY
 62
     7
 10
8647.9843932486037
 20
4120.0000001993476
 30
0.0
 11
8647.9843932486037
 21
664.0000001993493
 31
0.0
  0
LINE
  5
55
  8
FACILITY
 62
     7
 10
679.98439324860192
 20
673.50000019931633
 30
0.0
 11
679.98439324860374
 21
664.00000019931633
 31
0.0
  0
LINE
  5
5C
  8
FACILITY
 62
     7
 10
871.98439324860192
 20
673.50000019935283
 30
0.0
 11
871.98439324860374
 21
664.00000019935283
 31
0.0
  0
LINE
  5
A52
  8
FACILITY
 62
     7
 10
813.98439324860283
 20
664.0000001993493
 30
0.0
 11
737.98439324860283
 21
664.0000001993493
 31
0.0
  0
LINE
  5
A54
  8
FACILITY
 62
     7
 10
817.98439324860078
 20
582.00000019935305
 30
0.0
 11
733.98439324860271
 21
582.00000019935305
 31
0.0
  0
LINE
  5
A55
  8
FACILITY
 62
     7
 10
817.98439324860078
 20
593.00000019935305
 30
0.0
 11
733.98439324860271
 21
593.00000019935305
 31
0.0
  0
ARC
  5
A56
  8
FACILITY
  6
CENTER
 62
     7
 10
810.2343932486009
 20
667.00000019935032
 30
0.0
 40
34.249999999999091
 50
180.0
 51
270.0
  0
LINE
  5
A59
  8
FACILITY
 62
     7
 10
735.73439324860215
 20
571.00000019934942
 30
0.0
 11
735.73439324860294
 21
604.00000019935305
 31
0.0
  0
LINE
  5
A5A
  8
FACILITY
 62
     7
 10
810.23439324860294
 20
666.75000019935032
 30
0.0
 11
811.98439324860294
 21
666.75000019935032
 31
0.0
  0
LINE
  5
A5B
  8
FACILITY
 62
     7
 10
733.98439324860203
 20
583.00000019934942
 30
0.0
 11
733.98439324860271
 21
604.00000019935305
 31
0.0
  0
LINE
  5
A5E
  8
FACILITY
 62
     7
 10
811.98439324860294
 20
634.75000019935032
 30
0.0
 11
810.23439324860294
 21
634.75000019935032
 31
0.0
  0
LINE
  5
A62
  8
FACILITY
 62
     7
 10
816.2343932486034
 20
571.00000019934942
 30
0.0
 11
816.23439324860101
 21
664.0000001993493
 31
0.0
  0
LINE
  5
A63
  8
FACILITY
 62
     7
 10
817.98439324860362
 20
583.00000019934942
 30
0.0
 11
817.98439324860101
 21
664.0000001993493
 31
0.0
  0
LINE
  5
A65
  8
FACILITY
 62
     7
 10
771.98439324860283
 20
666.37500019935032
 30
0.0
 11
771.98439324860283
 21
671.12500019935032
 31
0.0
  0
LINE
  5
A66
  8
FACILITY
 62
     7
 10
739.98439324860283
 20
666.37500019935032
 30
0.0
 11
739.98439324860283
 21
671.12500019935032
 31
0.0
  0
LINE
  5
A67
  8
FACILITY
 62
     7
 10
813.98439324860283
 20
664.0000001993493
 30
0.0
 11
813.98439324860283
 21
673.50000019935305
 31
0.0
  0
LINE
  5
A68
  8
FACILITY
 62
     7
 10
737.98439324860283
 20
664.00000019934566
 30
0.0
 11
737.98439324860283
 21
673.50000019934942
 31
0.0
  0
LINE
  5
A69
  8
FACILITY
 62
     7
 10
737.98439324860635
 20
673.50000019935305
 30
0.0
 11
487.98439324860192
 21
673.50000019935305
 31
0.0
  0
LINE
  5
A6A
  8
FACILITY
 62
     7
 10
737.98439324860283
 20
664.00000019935305
 30
0.0
 11
487.98439324860368
 21
664.00000019935305
 31
0.0
  0
LINE
  5
A6E
  8
FACILITY
 62
     7
 10
8397.9843932486037
 20
664.00000019935055
 30
0.0
 11
8321.9843932486037
 21
664.00000019935055
 31
0.0
  0
LINE
  5
A6F
  8
FACILITY
 62
     7
 10
8401.9843932486037
 20
582.00000019934942
 30
0.0
 11
8317.9843932486037
 21
582.00000019934942
 31
0.0
  0
LINE
  5
A70
  8
FACILITY
 62
     7
 10
8401.9843932486037
 20
593.0000001993493
 30
0.0
 11
8317.9843932486037
 21
593.0000001993493
 31
0.0
  0
ARC
  5
A71
  8
FACILITY
  6
CENTER
 62
     7
 10
8325.7343932486037
 20
667.00000019935135
 30
0.0
 40
34.249999999999091
 50
270.0
 51
0.0
  0
LINE
  5
A74
  8
FACILITY
 62
     7
 10
8319.7343932486037
 20
571.00000019935055
 30
0.0
 11
8319.7343932486037
 21
664.00000019935055
 31
0.0
  0
LINE
  5
A75
  8
FACILITY
 62
     7
 10
8325.7343932486037
 20
666.75000019935146
 30
0.0
 11
8323.9843932486037
 21
666.75000019935146
 31
0.0
  0
LINE
  5
A76
  8
FACILITY
 62
     7
 10
8317.9843932486037
 20
583.00000019935055
 30
0.0
 11
8317.9843932486037
 21
664.00000019935055
 31
0.0
  0
LINE
  5
A78
  8
FACILITY
 62
     7
 10
8325.7343932486037
 20
634.75000019935135
 30
0.0
 11
8323.9843932486037
 21
634.75000019935135
 31
0.0
  0
LINE
  5
A7B
  8
FACILITY
 62
     7
 10
8400.2343932486037
 20
571.00000019935055
 30
0.0
 11
8400.2343932486037
 21
604.0000001993493
 31
0.0
  0
LINE
  5
A7C
  8
FACILITY
 62
     7
 10
8401.9843932486037
 20
583.00000019935055
 30
0.0
 11
8401.9843932486037
 21
604.00000019934942
 31
0.0
  0
LINE
  5
A7E
  8
FACILITY
 62
     7
 10
8363.9843932486056
 20
666.37500019935135
 30
0.0
 11
8363.9843932486056
 21
671.12500019935135
 31
0.0
  0
LINE
  5
A7F
  8
FACILITY
 62
     7
 10
8395.9843932486037
 20
666.37500019935135
 30
0.0
 11
8395.9843932486037
 21
671.12500019935135
 31
0.0
  0
LINE
  5
A80
  8
FACILITY
 62
     7
 10
8397.9843932486037
 20
664.00000019935055
 30
0.0
 11
8397.9843932486037
 21
673.50000019935408
 31
0.0
  0
LINE
  5
A81
  8
FACILITY
 62
     7
 10
8321.9843932486037
 20
664.00000019934691
 30
0.0
 11
8321.9843932486037
 21
673.50000019935055
 31
0.0
  0
LINE
  5
A83
  8
FACILITY
 62
     7
 10
8321.9843932486019
 20
673.49999749543429
 30
0.0
 11
7423.9843932486056
 21
673.50000019935146
 31
0.0
  0
LINE
  5
A84
  8
FACILITY
 62
     7
 10
8321.9843932486019
 20
663.99999749543417
 30
0.0
 11
7423.9843932486056
 21
664.00000019935055
 31
0.0
  0
LINE
  5
A85
  8
FACILITY
 62
     7
 10
6731.9843932486147
 20
550.00000328234785
 30
0.0
 11
6731.9843932486046
 21
664.00000328234785
 31
0.0
  0
LINE
  5
A86
  8
FACILITY
 62
     7
 10
6779.9843932486128
 20
550.00000328234785
 30
0.0
 11
6779.9843932486037
 21
664.00000328235149
 31
0.0
  0
LINE
  5
A87
  8
FACILITY
 62
     7
 10
6731.9843932486119
 20
561.00000328234421
 30
0.0
 11
6779.9843932486083
 21
561.00000328234421
 31
0.0
  0
LINE
  5
A88
  8
FACILITY
 62
     7
 10
6731.9843932486119
 20
572.00000328234421
 30
0.0
 11
6779.9843932486128
 21
572.00000328235149
 31
0.0
  0
LINE
  5
A89
  8
FACILITY
 62
     7
 10
6731.9843932486119
 20
583.00000328234785
 30
0.0
 11
6779.9843932486083
 21
583.00000328235137
 31
0.0
  0
LINE
  5
A8A
  8
FACILITY
 62
     7
 10
6731.9843932486147
 20
550.00000328234785
 30
0.0
 11
6779.9843932486128
 21
550.00000328234785
 31
0.0
  0
ARC
  5
A8B
  8
FACILITY
  6
CENTER
 62
     7
 10
6739.7343932486083
 20
667.37500328235694
 30
0.0
 40
34.250000000002721
 50
270.0000000000764
 51
359.999999999929
  0
LINE
  5
A8C
  8
FACILITY
 62
     7
 10
6731.9843932486083
 20
594.00000328234785
 30
0.0
 11
6779.9843932486083
 21
594.00000328234785
 31
0.0
  0
LINE
  5
A8D
  8
FACILITY
 62
     7
 10
6731.9843932486083
 20
605.00000328234785
 30
0.0
 11
6779.9843932486037
 21
605.00000328234785
 31
0.0
  0
LINE
  5
A8E
  8
FACILITY
  6
CONTINUOUS
 62
     7
 10
6735.9843932486037
 20
664.00000328234421
 30
0.0
 11
6735.9843932486037
 21
673.50000328234785
 31
0.0
  0
LINE
  5
A8F
  8
FACILITY
  6
CONTINUOUS
 62
     7
 10
6775.9843932486046
 20
664.00000328234785
 30
0.0
 11
6775.9843932486046
 21
673.50000328234785
 31
0.0
  0
LINE
  5
A90
  8
FACILITY
 62
     7
 10
6731.9843932486083
 20
616.0000032823441
 30
0.0
 11
6779.9843932486037
 21
616.00000328234785
 31
0.0
  0
LINE
  5
A91
  8
FACILITY
 62
     7
 10
6733.7343932486119
 20
549.00000328234785
 30
0.0
 11
6733.7343932486046
 21
664.00000328234785
 31
0.0
  0
LINE
  5
A92
  8
FACILITY
 62
     7
 10
6778.234393248611
 20
549.00000328234785
 30
0.0
 11
6778.2343932486037
 21
664.00000328234785
 31
0.0
  0
LINE
  5
A96
  8
FACILITY
 62
     7
 10
4001.9843932486151
 20
550.0000001993526
 30
0.0
 11
4001.9843932486042
 21
664.00000019935248
 31
0.0
  0
LINE
  5
A97
  8
FACILITY
 62
     7
 10
4049.9843932486119
 20
550.0000001993526
 30
0.0
 11
4049.9843932486042
 21
664.00000019935624
 31
0.0
  0
LINE
  5
A98
  8
FACILITY
 62
     7
 10
4001.984393248611
 20
561.00000019934896
 30
0.0
 11
4049.9843932486092
 21
561.00000019934896
 31
0.0
  0
LINE
  5
A99
  8
FACILITY
 62
     7
 10
4001.984393248611
 20
572.00000019934885
 30
0.0
 11
4049.9843932486119
 21
572.00000019935624
 31
0.0
  0
LINE
  5
A9A
  8
FACILITY
 62
     7
 10
4001.984393248611
 20
583.0000001993526
 30
0.0
 11
4049.9843932486092
 21
583.00000019935624
 31
0.0
  0
LINE
  5
A9B
  8
FACILITY
 62
     7
 10
4001.9843932486151
 20
550.0000001993526
 30
0.0
 11
4049.9843932486119
 21
550.0000001993526
 31
0.0
  0
ARC
  5
A9C
  8
FACILITY
  6
CENTER
 62
     7
 10
4009.7343932486078
 20
667.37500019936158
 30
0.0
 40
34.250000000002721
 50
270.0000000000764
 51
359.999999999929
  0
LINE
  5
A9D
  8
FACILITY
 62
     7
 10
4001.9843932486078
 20
594.00000019935248
 30
0.0
 11
4049.9843932486092
 21
594.00000019935248
 31
0.0
  0
LINE
  5
A9E
  8
FACILITY
 62
     7
 10
4001.9843932486078
 20
605.0000001993526
 30
0.0
 11
4049.9843932486042
 21
605.0000001993526
 31
0.0
  0
LINE
  5
A9F
  8
FACILITY
  6
CONTINUOUS
 62
     7
 10
4005.9843932486051
 20
664.00000019934885
 30
0.0
 11
4005.9843932486051
 21
673.5000001993526
 31
0.0
  0
LINE
  5
AA0
  8
FACILITY
  6
CONTINUOUS
 62
     7
 10
4045.9843932486051
 20
664.00000019935248
 30
0.0
 11
4045.9843932486051
 21
673.5000001993526
 31
0.0
  0
LINE
  5
AA1
  8
FACILITY
 62
     7
 10
4001.9843932486078
 20
616.00000019934885
 30
0.0
 11
4049.9843932486042
 21
616.0000001993526
 31
0.0
  0
LINE
  5
AA2
  8
FACILITY
 62
     7
 10
4003.7343932486119
 20
549.0000001993526
 30
0.0
 11
4003.7343932486042
 21
664.00000019935248
 31
0.0
  0
LINE
  5
AA3
  8
FACILITY
 62
     7
 10
4048.2343932486119
 20
549.0000001993526
 30
0.0
 11
4048.2343932486051
 21
664.00000019935248
 31
0.0
  0
LINE
  5
AA7
  8
FACILITY
 62
     7
 10
1571.9843932486151
 20
550.00000019935055
 30
0.0
 11
1571.984393248604
 21
664.00000019935055
 31
0.0
  0
LINE
  5
AA8
  8
FACILITY
 62
     7
 10
1619.984393248611
 20
550.00000019935055
 30
0.0
 11
1619.984393248604
 21
664.00000019935408
 31
0.0
  0
LINE
  5
AA9
  8
FACILITY
 62
     7
 10
1571.984393248611
 20
561.0000001993468
 30
0.0
 11
1619.9843932486081
 21
561.0000001993468
 31
0.0
  0
LINE
  5
AAA
  8
FACILITY
 62
     7
 10
1571.984393248611
 20
572.00000019934691
 30
0.0
 11
1619.984393248611
 21
572.00000019935408
 31
0.0
  0
LINE
  5
AAB
  8
FACILITY
 62
     7
 10
1571.984393248611
 20
583.00000019935055
 30
0.0
 11
1619.9843932486081
 21
583.00000019935419
 31
0.0
  0
LINE
  5
AAC
  8
FACILITY
 62
     7
 10
1571.9843932486151
 20
550.00000019935055
 30
0.0
 11
1619.984393248611
 21
550.00000019935055
 31
0.0
  0
ARC
  5
AAD
  8
FACILITY
  6
CENTER
 62
     7
 10
1579.7343932486081
 20
667.37500019935965
 30
0.0
 40
34.250000000002721
 50
270.0000000000764
 51
359.999999999929
  0
LINE
  5
AAE
  8
FACILITY
 62
     7
 10
1571.9843932486081
 20
594.00000019935055
 30
0.0
 11
1619.9843932486081
 21
594.00000019935055
 31
0.0
  0
LINE
  5
AAF
  8
FACILITY
 62
     7
 10
1571.9843932486081
 20
605.00000019935055
 30
0.0
 11
1619.984393248604
 21
605.00000019935055
 31
0.0
  0
LINE
  5
AB0
  8
FACILITY
  6
CONTINUOUS
 62
     7
 10
1575.984393248604
 20
664.00000019934691
 30
0.0
 11
1575.984393248604
 21
673.50000019935055
 31
0.0
  0
LINE
  5
AB1
  8
FACILITY
  6
CONTINUOUS
 62
     7
 10
1615.984393248604
 20
664.00000019935055
 30
0.0
 11
1615.984393248604
 21
673.50000019935055
 31
0.0
  0
LINE
  5
AB2
  8
FACILITY
 62
     7
 10
1571.9843932486081
 20
616.00000019934691
 30
0.0
 11
1619.984393248604
 21
616.00000019935055
 31
0.0
  0
LINE
  5
AB3
  8
FACILITY
 62
     7
 10
1573.734393248611
 20
549.00000019935055
 30
0.0
 11
1573.734393248604
 21
664.00000019935055
 31
0.0
  0
LINE
  5
AB4
  8
FACILITY
 62
     7
 10
1618.234393248611
 20
549.00000019935055
 30
0.0
 11
1618.234393248604
 21
664.00000019935055
 31
0.0
  0
LINE
  5
AB8
  8
FACILITY
 62
     7
 10
2011.984393248604
 20
673.50000019935965
 30
0.0
 11
1963.984393248604
 21
673.50000113542956
 31
0.0
  0
LINE
  5
AB9
  8
FACILITY
 62
     7
 10
4141.984393206345
 20
673.50000019935624
 30
0.0
 11
4045.9843932486051
 21
673.50000019935624
 31
0.0
  0
LINE
  5
ABA
  8
FACILITY
 62
     7
 10
4141.9843932063468
 20
664.00000019935533
 30
0.0
 11
4045.9843932486051
 21
664.00000019935533
 31
0.0
  0
LINE
  5
ABB
  8
FACILITY
 62
     7
 10
7528.9843932562026
 20
673.49999896084955
 30
0.0
 11
7423.9843932486056
 21
673.50000019935146
 31
0.0
  0
ARC
  5
B6D
  8
FACILITY
  6
CENTER
 62
     7
 10
491.35939324861459
 20
1625.7500001993481
 30
0.0
 40
34.250000000002721
 50
180.0000000000764
 51
269.999999999929
  0
LINE
  5
B6E
  8
FACILITY
  6
CONTINUOUS
 62
     7
 10
487.9843932486001
 20
1629.5000001993531
 30
0.0
 11
497.48439324860368
 21
1629.5000001993531
 31
0.0
  0
LINE
  5
B6F
  8
FACILITY
  6
CONTINUOUS
 62
     7
 10
487.98439324860368
 20
1589.5000001993531
 30
0.0
 11
497.48439324860368
 21
1589.5000001993531
 31
0.0
  0
LINE
  5
B73
  8
FACILITY
 62
     7
 10
487.9843932486001
 20
1629.499997468336
 30
0.0
 11
487.98439324860368
 21
1589.499997468336
 31
0.0
  0
LINE
  5
B74
  8
FACILITY
 62
     7
 10
497.48439324860368
 20
1629.5000001993531
 30
0.0
 11
497.48439324859658
 21
4110.5000001994194
 31
0.0
  0
LINE
  5
B75
  8
FACILITY
 62
     7
 10
487.98439324860368
 20
1629.5000001993531
 30
0.0
 11
487.98439324859652
 21
4120.0000001993876
 31
0.0
  0
ARC
  5
C08
  8
FACILITY
  6
CENTER
 62
     7
 10
3134.7343932486051
 20
4116.6250001993512
 30
0.0
 40
34.250000000002721
 50
90.000000000076426
 51
179.999999999929
  0
LINE
  5
C09
  8
FACILITY
  6
CONTINUOUS
 62
     7
 10
3138.4843932486078
 20
4120.000000199364
 30
0.0
 11
3138.4843932486078
 21
4110.5000001993603
 31
0.0
  0
LINE
  5
C0A
  8
FACILITY
  6
CONTINUOUS
 62
     7
 10
3098.4843932486078
 20
4120.0000001993603
 30
0.0
 11
3098.4843932486078
 21
4110.5000001993603
 31
0.0
  0
LINE
  5
C0E
  8
FACILITY
 62
     7
 10
3138.4843932486078
 20
4120.000000199364
 30
0.0
 11
3098.4843932486078
 21
4120.0000001993603
 31
0.0
  0
LINE
  5
C0F
  8
FACILITY
 62
     7
 10
2902.9843932486028
 20
4110.5000001993494
 30
0.0
 11
3098.4843932486078
 21
4110.5000001993503
 31
0.0
  0
LINE
  5
C10
  8
FACILITY
 62
     7
 10
2902.9843932486042
 20
4120.0000001993512
 30
0.0
 11
3098.4843932486078
 21
4120.0000001993531
 31
0.0
  0
ARC
  5
C11
  8
FACILITY
  6
CENTER
 62
     7
 10
6157.234393248601
 20
4116.6250001993476
 30
0.0
 40
34.250000000002721
 50
90.000000000076426
 51
179.999999999929
  0
LINE
  5
C12
  8
FACILITY
  6
CONTINUOUS
 62
     7
 10
6160.9843932486046
 20
4120.0000001993603
 30
0.0
 11
6160.9843932486046
 21
4110.5000001993567
 31
0.0
  0
LINE
  5
C13
  8
FACILITY
  6
CONTINUOUS
 62
     7
 10
6120.9843932486046
 20
4120.0000001993567
 30
0.0
 11
6120.9843932486046
 21
4110.5000001993567
 31
0.0
  0
LINE
  5
C17
  8
FACILITY
 62
     7
 10
6160.9843932486046
 20
4110.5000001993467
 30
0.0
 11
8638.4843932486037
 21
4110.5000001993558
 31
0.0
  0
LINE
  5
C18
  8
FACILITY
 62
     7
 10
6160.9843932486046
 20
4120.0000001993494
 30
0.0
 11
8647.9843932486037
 21
4120.0000001993476
 31
0.0
  0
LINE
  5
C19
  8
FACILITY
 62
     7
 10
1813.9843932486051
 20
673.50000019935351
 30
0.0
 11
1813.984393248604
 21
664.00000019935328
 31
0.0
  0
LINE
  5
C1A
  8
FACILITY
 62
     7
 10
1711.9843932486051
 20
673.5000001993526
 30
0.0
 11
1711.984393248604
 21
664.00000019935248
 31
0.0
  0
LINE
  5
C1D
  8
FACILITY
 62
     7
 10
1963.984393248604
 20
673.50000113542956
 30
0.0
 11
1963.984393248604
 21
664.00000113542967
 31
0.0
  0
LINE
  5
C1E
  8
FACILITY
 62
     7
 10
1861.984393248604
 20
673.50000113542956
 30
0.0
 11
1861.984393248604
 21
664.00000113542956
 31
0.0
  0
LINE
  5
C20
  8
FACILITY
 62
     7
 10
2113.9843932486042
 20
673.50000113542876
 30
0.0
 11
2113.9843932486042
 21
664.00000113542956
 31
0.0
  0
LINE
  5
C21
  8
FACILITY
 62
     7
 10
2011.984393248604
 20
673.50000113542876
 30
0.0
 11
2011.984393248604
 21
664.00000113542967
 31
0.0
  0
LINE
  5
C23
  8
FACILITY
 62
     7
 10
2263.9843932486042
 20
673.49999957530099
 30
0.0
 11
2263.9843932486028
 21
663.99999957530144
 31
0.0
  0
LINE
  5
C24
  8
FACILITY
 62
     7
 10
2161.9843932486042
 20
673.50000113543149
 30
0.0
 11
2161.9843932486042
 21
664.00000113542956
 31
0.0
  0
LINE
  5
C26
  8
FACILITY
 62
     7
 10
1861.984393248604
 20
664.00000113542956
 30
0.0
 11
1813.984393248604
 21
664.00000019935328
 31
0.0
  0
LINE
  5
C27
  8
FACILITY
 62
     7
 10
2011.984393248604
 20
664.00000113542967
 30
0.0
 11
1963.984393290862
 21
664.00000113542535
 31
0.0
  0
LINE
  5
C28
  8
FACILITY
 62
     7
 10
1861.984393248604
 20
673.50000113542956
 30
0.0
 11
1813.9843932486051
 21
673.50000019935351
 31
0.0
  0
LINE
  5
C29
  8
FACILITY
 62
     7
 10
1711.9843932908641
 20
664.00000019934828
 30
0.0
 11
1813.9843932908641
 21
664.00000019934828
 31
0.0
  0
LINE
  5
C2A
  8
FACILITY
 62
     7
 10
1861.984393248604
 20
664.00000019935328
 30
0.0
 11
1963.984393248604
 21
664.00000019935328
 31
0.0
  0
LINE
  5
C2B
  8
FACILITY
 62
     7
 10
2011.984393290862
 20
664.00000113542535
 30
0.0
 11
2113.984393290862
 21
664.00000113542535
 31
0.0
  0
LINE
  5
C2C
  8
FACILITY
 62
     7
 10
2161.984393290862
 20
663.99999957529701
 30
0.0
 11
2263.984393290863
 21
663.99999957529701
 31
0.0
  0
LINE
  5
C2D
  8
FACILITY
 62
     7
 10
4243.984393206345
 20
673.50000019935624
 30
0.0
 11
4243.984393206345
 21
664.00000019935533
 31
0.0
  0
LINE
  5
C2E
  8
FACILITY
 62
     7
 10
4141.984393206345
 20
673.50000019935624
 30
0.0
 11
4141.9843932063468
 21
664.00000019935533
 31
0.0
  0
LINE
  5
C30
  8
FACILITY
 62
     7
 10
4393.9843932486037
 20
673.49999926327973
 30
0.0
 11
4393.9843932486037
 21
663.99999926327871
 31
0.0
  0
LINE
  5
C31
  8
FACILITY
 62
     7
 10
4291.9843932486037
 20
673.49999926328064
 30
0.0
 11
4291.9843932486037
 21
663.99999926327871
 31
0.0
  0
LINE
  5
C33
  8
FACILITY
 62
     7
 10
4543.9843932063459
 20
673.50000051137965
 30
0.0
 11
4543.9843932063459
 21
664.00000051137886
 31
0.0
  0
LINE
  5
C34
  8
FACILITY
 62
     7
 10
4441.9843932063459
 20
673.50000051138056
 30
0.0
 11
4441.9843932063459
 21
664.00000051137886
 31
0.0
  0
LINE
  5
C36
  8
FACILITY
 62
     7
 10
4693.9843932063459
 20
673.50000175948287
 30
0.0
 11
4693.9843932063459
 21
664.00000175948207
 31
0.0
  0
LINE
  5
C37
  8
FACILITY
 62
     7
 10
4591.984393206345
 20
673.50000175948378
 30
0.0
 11
4591.984393206345
 21
664.00000175948207
 31
0.0
  0
LINE
  5
C38
  8
FACILITY
 62
     7
 10
4141.9843932486046
 20
664.00000019935248
 30
0.0
 11
4243.9843932486046
 21
664.00000019935248
 31
0.0
  0
LINE
  5
C39
  8
FACILITY
 62
     7
 10
4291.9843932486037
 20
663.99999926327871
 30
0.0
 11
4393.9843932486037
 21
663.99999926327871
 31
0.0
  0
LINE
  5
C3A
  8
FACILITY
 62
     7
 10
4441.9843932486037
 20
664.0000001993493
 30
0.0
 11
4543.9843932486046
 21
664.0000001993493
 31
0.0
  0
LINE
  5
C3B
  8
FACILITY
 62
     7
 10
4591.9843932486037
 20
664.0000001993493
 30
0.0
 11
4693.9843932486037
 21
664.0000001993493
 31
0.0
  0
LINE
  5
C3D
  8
FACILITY
 62
     7
 10
4441.9843932063459
 20
673.50000019935305
 30
0.0
 11
4393.9843932486037
 21
673.50000019935442
 31
0.0
  0
LINE
  5
C3E
  8
FACILITY
 62
     7
 10
4591.9843932063422
 20
673.50000019935305
 30
0.0
 11
4543.9843932063459
 21
673.50000019935305
 31
0.0
  0
LINE
  5
C3F
  8
FACILITY
 62
     7
 10
4591.984393206345
 20
664.00000019935123
 30
0.0
 11
4543.9843932063459
 21
664.00000019935123
 31
0.0
  0
LINE
  5
C40
  8
FACILITY
 62
     7
 10
4441.9843932063459
 20
664.00000019935123
 30
0.0
 11
4393.9843932486037
 21
664.00000019935248
 31
0.0
  0
LINE
  5
C41
  8
FACILITY
 62
     7
 10
4291.9843932486037
 20
673.50000019935442
 30
0.0
 11
4243.984393206345
 21
673.50000019935624
 31
0.0
  0
LINE
  5
C42
  8
FACILITY
 62
     7
 10
4291.9843932486037
 20
664.00000019935248
 30
0.0
 11
4243.984393206345
 21
664.00000019935533
 31
0.0
  0
LINE
  5
C43
  8
FACILITY
 62
     7
 10
6973.9843932486046
 20
673.50000137611141
 30
0.0
 11
6973.9843932486046
 21
664.00000137611039
 31
0.0
  0
LINE
  5
C44
  8
FACILITY
 62
     7
 10
6871.9843932486037
 20
673.50000137611232
 30
0.0
 11
6871.9843932486037
 21
664.00000137611039
 31
0.0
  0
LINE
  5
C46
  8
FACILITY
 62
     7
 10
7123.9843932908643
 20
673.50000137610857
 30
0.0
 11
7123.9843932908643
 21
664.00000137610778
 31
0.0
  0
LINE
  5
C47
  8
FACILITY
 62
     7
 10
7021.9843932908634
 20
673.50000137610948
 30
0.0
 11
7021.9843932908634
 21
664.00000137610778
 31
0.0
  0
LINE
  5
C49
  8
FACILITY
 62
     7
 10
7273.9843932486046
 20
673.50000019935146
 30
0.0
 11
7273.9843932486046
 21
664.00000019935055
 31
0.0
  0
LINE
  5
C4A
  8
FACILITY
 62
     7
 10
7171.9843932486037
 20
673.50000019935226
 30
0.0
 11
7171.9843932486037
 21
664.00000019935055
 31
0.0
  0
LINE
  5
C4C
  8
FACILITY
 62
     7
 10
7423.9843932486056
 20
673.50000019935146
 30
0.0
 11
7423.9843932486056
 21
664.00000019935055
 31
0.0
  0
LINE
  5
C4D
  8
FACILITY
 62
     7
 10
7321.9843932486037
 20
673.50000019935226
 30
0.0
 11
7321.9843932486037
 21
664.00000019935055
 31
0.0
  0
LINE
  5
C4E
  8
FACILITY
 62
     7
 10
6871.9843932908634
 20
664.00000137610778
 30
0.0
 11
6973.9843932908643
 21
664.00000137610778
 31
0.0
  0
LINE
  5
C4F
  8
FACILITY
 62
     7
 10
7021.9843932908634
 20
664.00000137610778
 30
0.0
 11
7123.9843932908643
 21
664.00000137610778
 31
0.0
  0
LINE
  5
C50
  8
FACILITY
 62
     7
 10
7171.9843932908634
 20
663.99999988732111
 30
0.0
 11
7273.9843932908643
 21
663.99999988732111
 31
0.0
  0
LINE
  5
C51
  8
FACILITY
 62
     7
 10
7321.9843932908634
 20
663.99999863921789
 30
0.0
 11
7423.9843932908643
 21
663.99999863921789
 31
0.0
  0
LINE
  5
C53
  8
FACILITY
 62
     7
 10
6871.9843932486037
 20
673.50000137611232
 30
0.0
 11
6775.9843932486046
 21
673.50000139301017
 31
0.0
  0
LINE
  5
C54
  8
FACILITY
 62
     7
 10
6871.9843932908634
 20
664.00000137610778
 30
0.0
 11
6775.9843932486046
 21
664.00000139300585
 31
0.0
  0
LINE
  5
C55
  8
FACILITY
 62
     7
 10
7021.9843932908634
 20
673.50000231218235
 30
0.0
 11
6973.9843932486046
 21
673.5000013761105
 31
0.0
  0
LINE
  5
C56
  8
FACILITY
 62
     7
 10
7171.9843932486037
 20
673.49999988732384
 30
0.0
 11
7123.9843932908643
 21
673.49999864509255
 31
0.0
  0
LINE
  5
C57
  8
FACILITY
 62
     7
 10
7171.984393248601
 20
663.99999988732384
 30
0.0
 11
7123.9843932908643
 21
664.00000137610778
 31
0.0
  0
LINE
  5
C58
  8
FACILITY
 62
     7
 10
7021.9843932908634
 20
664.00000231218246
 30
0.0
 11
6973.9843932486046
 21
664.00000137611039
 31
0.0
  0
LINE
  5
C59
  8
FACILITY
 62
     7
 10
7321.9843932486092
 20
673.49999863922062
 30
0.0
 11
7273.9843932486083
 21
673.49999988732384
 31
0.0
  0
LINE
  5
C5A
  8
FACILITY
 62
     7
 10
7321.9843932486037
 20
663.99999863922062
 30
0.0
 11
7273.9843932486083
 21
663.99999988732384
 31
0.0
  0
LINE
  5
C86
  8
FACILITY
 62
     7
 10
497.48439324860368
 20
856.00000019935305
 30
0.0
 11
487.98439324860368
 21
856.00000019935305
 31
0.0
  0
LINE
  5
C87
  8
FACILITY
 62
     7
 10
2161.984393290862
 20
673.50000269555994
 30
0.0
 11
2113.9843932486042
 21
673.50000113542876
 31
0.0
  0
LINE
  5
C88
  8
FACILITY
 62
     7
 10
2161.984393290862
 20
664.00000269555812
 30
0.0
 11
2113.9843932486042
 21
664.00000113542956
 31
0.0
  0
LINE
  5
C89
  8
FACILITY
 62
     7
 10
2902.9843932486042
 20
664.00000019935248
 30
0.0
 11
2902.9843932486042
 21
673.50000019935226
 31
0.0
  0
LINE
  5
C8A
  8
FACILITY
 62
     7
 10
3210.4843932486042
 20
664.00000019935248
 30
0.0
 11
3210.4843932486042
 21
673.50000019935226
 31
0.0
  0
LINE
  5
C8B
  8
FACILITY
 62
     7
 10
2595.4843932486042
 20
664.00000019935248
 30
0.0
 11
2595.4843932486042
 21
673.50000019935226
 31
0.0
  0
LINE
  5
C8C
  8
FACILITY
 62
     7
 10
2287.9843932486042
 20
664.00000019935248
 30
0.0
 11
2287.9843932486042
 21
673.50000019935226
 31
0.0
  0
LINE
  5
C8D
  8
FACILITY
 62
     7
 10
1987.984393248604
 20
664.00000019935248
 30
0.0
 11
1987.984393248604
 21
673.50000019935226
 31
0.0
  0
LINE
  5
C8E
  8
FACILITY
 62
     7
 10
1687.984393248604
 20
664.00000019935248
 30
0.0
 11
1687.984393248604
 21
673.50000019935226
 31
0.0
  0
LINE
  5
C8F
  8
FACILITY
 62
     7
 10
1387.984393248604
 20
664.00000019935248
 30
0.0
 11
1387.984393248604
 21
673.50000019935226
 31
0.0
  0
LINE
  5
C90
  8
FACILITY
 62
     7
 10
1087.984393248604
 20
664.00000019935248
 30
0.0
 11
1087.984393248604
 21
673.50000019935226
 31
0.0
  0
LINE
  5
C91
  8
FACILITY
 62
     7
 10
1711.9843932486051
 20
673.5000001993526
 30
0.0
 11
1615.984393248604
 21
673.50000019935283
 31
0.0
  0
LINE
  5
C92
  8
FACILITY
 62
     7
 10
1711.984393248604
 20
664.00000019935248
 30
0.0
 11
1615.984393248604
 21
664.00000019935271
 31
0.0
  0
LINE
  5
C93
  8
FACILITY
 62
     7
 10
3517.9843932486042
 20
664.00000019935248
 30
0.0
 11
3517.9843932486042
 21
673.50000019935226
 31
0.0
  0
LINE
  5
C94
  8
FACILITY
 62
     7
 10
3817.9843932486042
 20
664.00000019935248
 30
0.0
 11
3817.9843932486042
 21
673.50000019935226
 31
0.0
  0
LINE
  5
C95
  8
FACILITY
 62
     7
 10
4117.9843932486037
 20
664.00000019935248
 30
0.0
 11
4117.9843932486037
 21
673.50000019935226
 31
0.0
  0
LINE
  5
C96
  8
FACILITY
 62
     7
 10
4417.9843932486037
 20
664.00000019935248
 30
0.0
 11
4417.9843932486037
 21
673.50000019935226
 31
0.0
  0
LINE
  5
C97
  8
FACILITY
 62
     7
 10
4717.9843932486037
 20
664.00000019935248
 30
0.0
 11
4717.9843932486037
 21
673.50000019935226
 31
0.0
  0
LINE
  5
C98
  8
FACILITY
 62
     7
 10
5017.9843932486046
 20
664.00000019935248
 30
0.0
 11
5017.9843932486046
 21
673.50000019935226
 31
0.0
  0
LINE
  5
C99
  8
FACILITY
 62
     7
 10
5317.9843932486046
 20
664.00000019935248
 30
0.0
 11
5317.9843932486046
 21
673.50000019935226
 31
0.0
  0
LINE
  5
C9A
  8
FACILITY
 62
     7
 10
5617.9843932486046
 20
664.00000019935248
 30
0.0
 11
5617.9843932486046
 21
673.50000019935226
 31
0.0
  0
LINE
  5
C9B
  8
FACILITY
 62
     7
 10
4005.9843932486051
 20
673.50000019935624
 30
0.0
 11
2263.9843932486042
 21
673.50000019935226
 31
0.0
  0
LINE
  5
C9C
  8
FACILITY
 62
     7
 10
4005.9843932486051
 20
664.00000019935544
 30
0.0
 11
2263.9843932486042
 21
664.00000019935271
 31
0.0
  0
LINE
  5
C9D
  8
FACILITY
 62
     7
 10
6232.9843932486046
 20
664.00000019935055
 30
0.0
 11
6232.9843932562062
 21
673.50000052097766
 31
0.0
  0
LINE
  5
C9E
  8
FACILITY
 62
     7
 10
5925.4843932486046
 20
664.00000019935055
 30
0.0
 11
5925.4843932562053
 21
673.50000052097766
 31
0.0
  0
LINE
  5
C9F
  8
FACILITY
 62
     7
 10
6540.4843932486037
 20
664.00000019935055
 30
0.0
 11
6540.4843932562062
 21
673.50000052097766
 31
0.0
  0
LINE
  5
CA0
  8
FACILITY
 62
     7
 10
6847.9843932486046
 20
664.00000019935055
 30
0.0
 11
6847.9843932562044
 21
673.50000052097766
 31
0.0
  0
LINE
  5
CA1
  8
FACILITY
 62
     7
 10
7147.9843932486046
 20
664.00000019935055
 30
0.0
 11
7147.9843932562053
 21
673.50000052097766
 31
0.0
  0
LINE
  5
CA2
  8
FACILITY
 62
     7
 10
7447.9843932486046
 20
664.00000019935055
 30
0.0
 11
7447.9843932562053
 21
673.50000052097766
 31
0.0
  0
LINE
  5
CA3
  8
FACILITY
 62
     7
 10
7747.9843932486037
 20
664.00000019935055
 30
0.0
 11
7747.9843932562053
 21
673.50000052097766
 31
0.0
  0
LINE
  5
CA4
  8
FACILITY
 62
     7
 10
8047.9843932486037
 20
664.00000019935055
 30
0.0
 11
8047.9843932562053
 21
673.50000052097766
 31
0.0
  0
LINE
  5
CA5
  8
FACILITY
 62
     7
 10
8263.9843932486037
 20
664.00000019935055
 30
0.0
 11
8263.9843932562053
 21
673.50000052097766
 31
0.0
  0
LINE
  5
CA6
  8
FACILITY
 62
     7
 10
8455.9843932486037
 20
664.00000019935055
 30
0.0
 11
8455.9843932562071
 21
673.50000052097766
 31
0.0
  0
LINE
  5
CA7
  8
FACILITY
 62
     7
 10
8638.4843932486037
 20
856.0000001993493
 30
0.0
 11
8647.9843932486037
 21
856.0000001993493
 31
0.0
  0
LINE
  5
CA8
  8
FACILITY
 62
     7
 10
8638.4843932486037
 20
1048.000000199349
 30
0.0
 11
8647.9843932486037
 21
1048.000000199349
 31
0.0
  0
LINE
  5
CA9
  8
FACILITY
 62
     7
 10
8638.4843932486037
 20
1336.000000199349
 30
0.0
 11
8647.9843932486037
 21
1336.000000199349
 31
0.0
  0
LINE
  5
CAA
  8
FACILITY
 62
     7
 10
8638.4843932486037
 20
1624.000000199349
 30
0.0
 11
8647.9843932486037
 21
1624.000000199349
 31
0.0
  0
LINE
  5
CAB
  8
FACILITY
 62
     7
 10
8638.4843932486037
 20
1912.000000199349
 30
0.0
 11
8647.9843932486037
 21
1912.000000199349
 31
0.0
  0
LINE
  5
CAC
  8
FACILITY
 62
     7
 10
8638.4843932486037
 20
2200.000000199349
 30
0.0
 11
8647.9843932486037
 21
2200.000000199349
 31
0.0
  0
LINE
  5
CB5
  8
FACILITY
 62
     7
 10
497.48439324860368
 20
1053.5000001993531
 30
0.0
 11
487.98439324860368
 21
1053.5000001993531
 31
0.0
  0
LINE
  5
CB6
  8
FACILITY
 62
     7
 10
497.48439324860368
 20
1353.5000001993531
 30
0.0
 11
487.98439324860368
 21
1353.5000001993531
 31
0.0
  0
LINE
  5
CB7
  8
FACILITY
 62
     7
 10
497.48439324860368
 20
1653.5000001993531
 30
0.0
 11
487.98439324860368
 21
1653.5000001993531
 31
0.0
  0
LINE
  5
CB8
  8
FACILITY
 62
     7
 10
497.48439324860368
 20
1953.5000001993531
 30
0.0
 11
487.98439324860368
 21
1953.5000001993531
 31
0.0
  0
LINE
  5
CC2
  8
FACILITY
 62
     7
 10
2902.9843932486042
 20
4120.0000001993512
 30
0.0
 11
2902.9843932486028
 21
4110.5000001993494
 31
0.0
  0
LINE
  5
CC3
  8
FACILITY
 62
     7
 10
3210.4843932486042
 20
4120.0000001993531
 30
0.0
 11
3210.4843932486042
 21
4110.5000001993467
 31
0.0
  0
LINE
  5
CC4
  8
FACILITY
 62
     7
 10
3138.4843932486069
 20
4120.0000001993531
 30
0.0
 11
6120.9843932486046
 21
4120.0000001993567
 31
0.0
  0
LINE
  5
CC5
  8
FACILITY
 62
     7
 10
3138.4843932486069
 20
4110.5000001993503
 30
0.0
 11
6120.9843932486046
 21
4110.5000001993567
 31
0.0
  0
LINE
  5
CC6
  8
FACILITY
 62
     7
 10
6232.9843932486046
 20
4120.0000001993494
 30
0.0
 11
6232.9843932486046
 21
4110.5000001993494
 31
0.0
  0
LINE
  5
CC7
  8
FACILITY
 62
     7
 10
6727.9843932486037
 20
4120.0000001993494
 30
0.0
 11
6727.9843932486037
 21
4110.5000001993494
 31
0.0
  0
LINE
  5
CC8
  8
FACILITY
 62
     7
 10
6535.9843932486037
 20
4120.0000001993494
 30
0.0
 11
6535.9843932486037
 21
4110.5000001993494
 31
0.0
  0
LINE
  5
CC9
  8
FACILITY
 62
     7
 10
5925.4843932486046
 20
4120.0000001993494
 30
0.0
 11
5925.4843932486046
 21
4110.5000001993494
 31
0.0
  0
LINE
  5
CCA
  8
FACILITY
 62
     7
 10
5617.9843932486046
 20
4120.0000001993494
 30
0.0
 11
5617.9843932486046
 21
4110.5000001993494
 31
0.0
  0
LINE
  5
CCB
  8
FACILITY
 62
     7
 10
3517.9843932486042
 20
4120.0000001993531
 30
0.0
 11
3517.9843932486028
 21
4110.5000001993467
 31
0.0
  0
LINE
  5
CCC
  8
FACILITY
 62
     7
 10
3817.9843932486042
 20
4120.0000001993531
 30
0.0
 11
3817.9843932486042
 21
4110.5000001993467
 31
0.0
  0
LINE
  5
CCD
  8
FACILITY
 62
     7
 10
4117.9843932486037
 20
4120.0000001993531
 30
0.0
 11
4117.9843932486037
 21
4110.5000001993467
 31
0.0
  0
LINE
  5
CCE
  8
FACILITY
 62
     7
 10
4417.9843932486037
 20
4120.0000001993531
 30
0.0
 11
4417.9843932486037
 21
4110.5000001993467
 31
0.0
  0
LINE
  5
CCF
  8
FACILITY
 62
     7
 10
4717.9843932486037
 20
4120.0000001993531
 30
0.0
 11
4717.9843932486028
 21
4110.5000001993467
 31
0.0
  0
LINE
  5
CD0
  8
FACILITY
 62
     7
 10
5017.9843932486046
 20
4120.0000001993531
 30
0.0
 11
5017.9843932486028
 21
4110.5000001993467
 31
0.0
  0
LINE
  5
CD1
  8
FACILITY
 62
     7
 10
5317.9843932486046
 20
4120.0000001993531
 30
0.0
 11
5317.9843932486037
 21
4110.5000001993467
 31
0.0
  0
LINE
  5
D08
  8
FACILITY
 62
     7
 10
6735.9843932486037
 20
673.50000140005102
 30
0.0
 11
5249.9843932486037
 21
673.50000166161612
 31
0.0
  0
LINE
  5
D09
  8
FACILITY
 62
     7
 10
6735.9843932486037
 20
664.0000014000467
 30
0.0
 11
5249.9843932486037
 21
664.00000166161419
 31
0.0
  0
LINE
  5
D29
  8
FACILITY
 62
     7
 10
1575.984393248604
 20
673.50000019935283
 30
0.0
 11
813.98439324860465
 21
673.50000019935305
 31
0.0
  0
LINE
  5
D2A
  8
FACILITY
 62
     7
 10
1575.984393248604
 20
664.00000019935271
 30
0.0
 11
813.98439324860112
 21
664.00000019935305
 31
0.0
  0
LINE
  5
D3E
  8
FACILITY
 62
     7
 10
5085.9843932486046
 20
673.50000092450125
 30
0.0
 11
5085.9843932486046
 21
664.00000092450136
 31
0.0
  0
LINE
  5
D3F
  8
FACILITY
 62
     7
 10
5249.9843932486037
 20
673.50000092450125
 30
0.0
 11
5249.9843932486037
 21
664.00000092450136
 31
0.0
  0
LINE
  5
D41
  8
FACILITY
 62
     7
 10
5249.9843932486037
 20
664.00000092450136
 30
0.0
 11
5085.9843932486046
 21
664.00000092449591
 31
0.0
  0
LINE
  5
D71
  8
FACILITY
 62
     7
 10
5085.9843932486046
 20
673.50000169048315
 30
0.0
 11
4693.9843932063459
 21
673.50000175948287
 31
0.0
  0
LINE
  5
D72
  8
FACILITY
 62
     7
 10
5085.9843932486046
 20
664.00000169048167
 30
0.0
 11
4693.9843932063459
 21
664.00000175948207
 31
0.0
  0
ARC
  5
DA2
  8
FACILITY
  6
CENTER
 62
     7
 10
643.73439324861727
 20
1619.7500001993469
 30
0.0
 40
34.250000000002721
 50
180.0000000000764
 51
269.999999999929
  0
LINE
  5
DC4
  8
FACILITY
 62
     7
 10
4045.9843932486051
 20
664.00000019935248
 30
0.0
 11
4005.9843932486051
 21
664.00000019934885
 31
0.0
  0
LINE
  5
DC5
  8
FACILITY
 62
     7
 10
6775.9843932486046
 20
664.00000328234785
 30
0.0
 11
6735.9843932486037
 21
664.00000328234421
 31
0.0
  0
LINE
  5
DC7
  8
FACILITY
 62
     7
 10
6160.9843932486046
 20
4120.0000001993603
 30
0.0
 11
6120.9843932486046
 21
4120.0000001993567
 31
0.0
  0
LINE
  5
E6B
  8
FACILITY
 62
     7
 10
6116.9843932486128
 20
4168.0000001993576
 30
0.0
 11
6164.9843932486119
 21
4168.0000001993531
 31
0.0
  0
LINE
  5
E6C
  8
FACILITY
 62
     7
 10
6116.9843932486056
 20
4120.0000001993612
 30
0.0
 11
6116.9843932486128
 21
4168.0000001993576
 31
0.0
  0
LINE
  5
E6D
  8
FACILITY
 62
     7
 10
6164.9843932486046
 20
4120.0000001993558
 30
0.0
 11
6164.9843932486119
 21
4168.0000001993531
 31
0.0
  0
LINE
  5
E6E
  8
FACILITY
 62
     7
 10
3094.484393248616
 20
4168.0000001993621
 30
0.0
 11
3142.484393248616
 21
4168.0000001993567
 31
0.0
  0
LINE
  5
E6F
  8
FACILITY
 62
     7
 10
3094.4843932486092
 20
4120.0000001993649
 30
0.0
 11
3094.484393248616
 21
4168.0000001993621
 31
0.0
  0
LINE
  5
E70
  8
FACILITY
 62
     7
 10
3142.4843932486092
 20
4120.0000001993594
 30
0.0
 11
3142.484393248616
 21
4168.0000001993567
 31
0.0
  0
LINE
  5
E71
  8
FACILITY
 62
     7
 10
439.97681651415292
 20
1588.1477498983029
 30
0.0
 11
439.99384227648619
 21
1636.147746878755
 31
0.0
  0
LINE
  5
E72
  8
FACILITY
 62
     7
 10
487.97681349460538
 20
1588.1307241359709
 30
0.0
 11
439.97681651415581
 21
1588.1477498983029
 31
0.0
  0
LINE
  5
E73
  8
FACILITY
 62
     7
 10
487.99383925693581
 20
1636.130721116423
 30
0.0
 11
439.99384227648619
 21
1636.147746878755
 31
0.0
  0
LINE
  5
F41
  8
FACILITY
 62
     7
 10
2780.5976652397171
 20
4120.0000001993531
 30
0.0
 11
2780.5976652397171
 21
4110.5000001993503
 31
0.0
  0
LINE
  5
F44
  8
FACILITY
 62
     7
 10
487.98439324860232
 20
2103.500000199354
 30
0.0
 11
497.48439324860283
 21
2103.500000199354
 31
0.0
  0
CIRCLE
  5
FDC
  8
FACILITY
  6
DASHED
 62
     6
 10
8467.9843932562053
 20
682.50000019935123
 30
0.0
 40
6.0
  0
LINE
  5
FF4
  8
FACILITY
 10
946.98439324860374
 20
990.00000019935294
 30
0.0
 11
497.48439324860362
 21
990.00000019935305
 31
0.0
  0
LINE
  5
FF5
  8
FACILITY
 10
946.98439324860374
 20
673.50000019935305
 30
0.0
 11
946.98439324860374
 21
990.00000019935294
 31
0.0
  0
LINE
  5
FF6
  8
FACILITY
 10
942.48439324860374
 20
985.50000019935294
 30
0.0
 11
497.48439324860362
 21
985.50000019935305
 31
0.0
  0
LINE
  5
FF7
  8
FACILITY
 10
942.48439324860374
 20
673.50000019935305
 30
0.0
 11
942.48439324860374
 21
985.50000019935294
 31
0.0
  0
LINE
  5
FF9
  8
FACILITY
 62
     7
 10
817.98439324860078
 20
604.00000019935305
 30
0.0
 11
733.98439324860271
 21
604.00000019935305
 31
0.0
  0
LINE
  5
FFA
  8
FACILITY
 62
     7
 10
8401.9843932486037
 20
604.00000019934942
 30
0.0
 11
8317.9843932486037
 21
604.00000019934942
 31
0.0
  0
LINE
  5
1026
  8
FACILITY
 62
     7
 10
4843.9843932063459
 20
673.50000206728453
 30
0.0
 11
4843.9843932063459
 21
664.00000206728362
 31
0.0
  0
LINE
  5
1027
  8
FACILITY
 62
     7
 10
4741.9843932063459
 20
673.50000206728544
 30
0.0
 11
4741.9843932063459
 21
664.00000206728362
 31
0.0
  0
LINE
  5
1029
  8
FACILITY
 62
     7
 10
4741.9843932486037
 20
664.00000175525417
 30
0.0
 11
4843.9843932486046
 21
664.00000175525417
 31
0.0
  0
LINE
  5
102D
  8
FACILITY
 62
     7
 10
3943.9843932063459
 20
673.50000051138181
 30
0.0
 11
3943.9843932063459
 21
664.0000005113809
 31
0.0
  0
LINE
  5
102E
  8
FACILITY
 62
     7
 10
3841.984393206345
 20
673.50000051138272
 30
0.0
 11
3841.984393206345
 21
664.0000005113809
 31
0.0
  0
LINE
  5
1030
  8
FACILITY
 62
     7
 10
3841.9843932486042
 20
664.00000019935135
 30
0.0
 11
3943.9843932486051
 21
664.00000019935135
 31
0.0
  0
LINE
  5
1073
  8
FACILITY
 62
     7
 10
3643.9843932063459
 20
673.50000051138113
 30
0.0
 11
3643.9843932063459
 21
664.00000051138022
 31
0.0
  0
LINE
  5
1074
  8
FACILITY
 62
     7
 10
3541.984393206345
 20
673.50000051138204
 30
0.0
 11
3541.984393206345
 21
664.00000051138022
 31
0.0
  0
LINE
  5
1076
  8
FACILITY
 62
     7
 10
3793.9843932063459
 20
673.50000175948435
 30
0.0
 11
3793.9843932063459
 21
664.00000175948344
 31
0.0
  0
LINE
  5
1077
  8
FACILITY
 62
     7
 10
3691.984393206345
 20
673.50000175948526
 30
0.0
 11
3691.984393206345
 21
664.00000175948344
 31
0.0
  0
LINE
  5
1078
  8
FACILITY
 62
     7
 10
3541.9843932486042
 20
664.00000019935078
 30
0.0
 11
3643.9843932486042
 21
664.00000019935078
 31
0.0
  0
LINE
  5
1079
  8
FACILITY
 62
     7
 10
3691.9843932486042
 20
664.00000019935078
 30
0.0
 11
3793.9843932486051
 21
664.00000019935078
 31
0.0
  0
LINE
  5
107B
  8
FACILITY
 62
     7
 10
3691.9843932063418
 20
673.50000019935442
 30
0.0
 11
3643.9843932063459
 21
673.50000019935442
 31
0.0
  0
LINE
  5
107C
  8
FACILITY
 62
     7
 10
3691.984393206345
 20
664.00000019935248
 30
0.0
 11
3643.9843932063459
 21
664.00000019935248
 31
0.0
  0
LINE
  5
1094
  8
FACILITY
 62
     7
 10
3338.3593932063459
 20
673.50000051138079
 30
0.0
 11
3338.3593932063459
 21
664.00000051137977
 31
0.0
  0
LINE
  5
1095
  8
FACILITY
 62
     7
 10
3236.359393206345
 20
673.5000005113817
 30
0.0
 11
3236.359393206345
 21
664.00000051137977
 31
0.0
  0
LINE
  5
1097
  8
FACILITY
 62
     7
 10
3236.3593932486042
 20
664.00000019935044
 30
0.0
 11
3338.3593932486051
 21
664.00000019935044
 31
0.0
  0
LINE
  5
1099
  8
FACILITY
 62
     7
 10
3492.109393206345
 20
673.50000175948128
 30
0.0
 11
3492.109393206345
 21
664.00000175948026
 31
0.0
  0
LINE
  5
109A
  8
FACILITY
 62
     7
 10
3390.1093932063459
 20
673.50000175948207
 30
0.0
 11
3390.1093932063459
 21
664.00000175948026
 31
0.0
  0
LINE
  5
109B
  8
FACILITY
 62
     7
 10
3390.1093932486051
 20
664.00000019934771
 30
0.0
 11
3492.1093932486042
 21
664.00000019934771
 31
0.0
  0
LINE
  5
10A1
  8
FACILITY
 62
     7
 10
3030.8593932063459
 20
673.5000005113792
 30
0.0
 11
3030.8593932063459
 21
664.00000051137818
 31
0.0
  0
LINE
  5
10A2
  8
FACILITY
 62
     7
 10
2928.8593932063459
 20
673.50000051138011
 30
0.0
 11
2928.8593932063459
 21
664.00000051137818
 31
0.0
  0
LINE
  5
10A4
  8
FACILITY
 62
     7
 10
2928.8593932486042
 20
664.00000019934885
 30
0.0
 11
3030.8593932486042
 21
664.00000019934885
 31
0.0
  0
LINE
  5
10A6
  8
FACILITY
 62
     7
 10
3184.6093932063459
 20
673.50000175947969
 30
0.0
 11
3184.6093932063459
 21
664.00000175947866
 31
0.0
  0
LINE
  5
10A7
  8
FACILITY
 62
     7
 10
3082.6093932063459
 20
673.50000175948048
 30
0.0
 11
3082.6093932063459
 21
664.00000175947866
 31
0.0
  0
LINE
  5
10A8
  8
FACILITY
 62
     7
 10
3082.6093932486042
 20
664.00000019934612
 30
0.0
 11
3184.6093932486042
 21
664.00000019934612
 31
0.0
  0
LINE
  5
10AD
  8
FACILITY
 62
     7
 10
2723.3593932063459
 20
673.5000005113792
 30
0.0
 11
2723.3593932063459
 21
664.00000051137818
 31
0.0
  0
LINE
  5
10AE
  8
FACILITY
 62
     7
 10
2621.3593932063459
 20
673.50000051138011
 30
0.0
 11
2621.3593932063459
 21
664.00000051137818
 31
0.0
  0
LINE
  5
10B0
  8
FACILITY
 62
     7
 10
2621.3593932486051
 20
664.00000019934885
 30
0.0
 11
2723.3593932486051
 21
664.00000019934885
 31
0.0
  0
LINE
  5
10B2
  8
FACILITY
 62
     7
 10
2877.1093932063459
 20
673.50000175947969
 30
0.0
 11
2877.1093932063459
 21
664.00000175947866
 31
0.0
  0
LINE
  5
10B3
  8
FACILITY
 62
     7
 10
2775.1093932063459
 20
673.50000175948048
 30
0.0
 11
2775.1093932063459
 21
664.00000175947866
 31
0.0
  0
LINE
  5
10B4
  8
FACILITY
 62
     7
 10
2775.1093932486042
 20
664.00000019934612
 30
0.0
 11
2877.1093932486042
 21
664.00000019934612
 31
0.0
  0
LINE
  5
10B9
  8
FACILITY
 62
     7
 10
2415.8593932063459
 20
673.5000005113792
 30
0.0
 11
2415.8593932063459
 21
664.00000051137818
 31
0.0
  0
LINE
  5
10BA
  8
FACILITY
 62
     7
 10
2313.8593932063459
 20
673.50000051138011
 30
0.0
 11
2313.8593932063459
 21
664.00000051137818
 31
0.0
  0
LINE
  5
10BC
  8
FACILITY
 62
     7
 10
2313.8593932486042
 20
664.00000019934885
 30
0.0
 11
2415.8593932486042
 21
664.00000019934885
 31
0.0
  0
LINE
  5
10BE
  8
FACILITY
 62
     7
 10
2569.609393206345
 20
673.50000175947969
 30
0.0
 11
2569.609393206345
 21
664.00000175947866
 31
0.0
  0
LINE
  5
10BF
  8
FACILITY
 62
     7
 10
2467.6093932063459
 20
673.50000175948048
 30
0.0
 11
2467.6093932063459
 21
664.00000175947866
 31
0.0
  0
LINE
  5
10C0
  8
FACILITY
 62
     7
 10
2467.6093932486042
 20
664.00000019934612
 30
0.0
 11
2569.6093932486051
 21
664.00000019934612
 31
0.0
  0
LINE
  5
121A
  8
FACILITY
 62
     3
 10
4888.9843933719867
 20
2066.0000017251582
 30
0.0
 11
4876.984393371984
 21
2066.00000172727
 31
0.0
  0
LINE
  5
121B
  8
FACILITY
 62
     3
 10
4888.9843934953533
 20
2767.0000017251591
 30
0.0
 11
4876.9843934953524
 21
2767.00000172727
 31
0.0
  0
LINE
  5
121C
  8
FACILITY
 62
     3
 10
4888.9843936187199
 20
3468.0000017251582
 30
0.0
 11
4876.9843936187181
 21
3468.00000172727
 31
0.0
  0
LINE
  5
1A9C
  8
FACILITY
 62
     7
 10
6733.0374698936466
 20
673.49999896084955
 30
0.0
 11
6628.0374698860487
 21
673.50000019935146
 31
0.0
  0
LINE
  5
1AA1
  8
FACILITY
 62
     7
 10
6178.0374698860478
 20
673.50000137611141
 30
0.0
 11
6178.0374698860478
 21
664.00000137611039
 31
0.0
  0
LINE
  5
1AA2
  8
FACILITY
 62
     7
 10
6076.0374698860478
 20
673.50000137611232
 30
0.0
 11
6076.0374698860478
 21
664.00000137611039
 31
0.0
  0
LINE
  5
1AA4
  8
FACILITY
 62
     7
 10
6328.0374699283066
 20
673.50000137610857
 30
0.0
 11
6328.0374699283066
 21
664.00000137610778
 31
0.0
  0
LINE
  5
1AA5
  8
FACILITY
 62
     7
 10
6226.0374699283066
 20
673.50000137610948
 30
0.0
 11
6226.0374699283066
 21
664.00000137610778
 31
0.0
  0
LINE
  5
1AA7
  8
FACILITY
 62
     7
 10
6478.0374698860478
 20
673.50000019935146
 30
0.0
 11
6478.0374698860478
 21
664.00000019935055
 31
0.0
  0
LINE
  5
1AA8
  8
FACILITY
 62
     7
 10
6376.0374698860478
 20
673.50000019935226
 30
0.0
 11
6376.0374698860478
 21
664.00000019935055
 31
0.0
  0
LINE
  5
1AAA
  8
FACILITY
 62
     7
 10
6628.0374698860487
 20
673.50000019935146
 30
0.0
 11
6628.0374698860487
 21
664.00000019935055
 31
0.0
  0
LINE
  5
1AAB
  8
FACILITY
 62
     7
 10
6526.0374698860469
 20
673.50000019935226
 30
0.0
 11
6526.0374698860469
 21
664.00000019935055
 31
0.0
  0
LINE
  5
1AAC
  8
FACILITY
 62
     7
 10
6076.0374699283066
 20
664.00000137610778
 30
0.0
 11
6178.0374699283057
 21
664.00000137610778
 31
0.0
  0
LINE
  5
1AAD
  8
FACILITY
 62
     7
 10
6226.0374699283066
 20
664.00000137610778
 30
0.0
 11
6328.0374699283066
 21
664.00000137610778
 31
0.0
  0
LINE
  5
1AAE
  8
FACILITY
 62
     7
 10
6376.0374699283066
 20
663.99999988732111
 30
0.0
 11
6478.0374699283066
 21
663.99999988732111
 31
0.0
  0
LINE
  5
1AAF
  8
FACILITY
 62
     7
 10
6526.0374699283057
 20
663.99999863921789
 30
0.0
 11
6628.0374699283066
 21
663.99999863921789
 31
0.0
  0
LINE
  5
1AB1
  8
FACILITY
 62
     7
 10
6226.0374699283066
 20
673.50000231218235
 30
0.0
 11
6178.0374698860478
 21
673.5000013761105
 31
0.0
  0
LINE
  5
1AB2
  8
FACILITY
 62
     7
 10
6376.0374698860478
 20
673.49999988732384
 30
0.0
 11
6328.0374699283066
 21
673.49999864509255
 31
0.0
  0
LINE
  5
1AB3
  8
FACILITY
 62
     7
 10
6376.0374698860442
 20
663.99999988732384
 30
0.0
 11
6328.0374699283066
 21
664.00000137610778
 31
0.0
  0
LINE
  5
1AB4
  8
FACILITY
 62
     7
 10
6226.0374699283066
 20
664.00000231218246
 30
0.0
 11
6178.0374698860478
 21
664.00000137611039
 31
0.0
  0
LINE
  5
1AB5
  8
FACILITY
 62
     7
 10
6526.0374698860523
 20
673.49999863922062
 30
0.0
 11
6478.0374698860514
 21
673.49999988732384
 31
0.0
  0
LINE
  5
1AB6
  8
FACILITY
 62
     7
 10
6526.0374698860469
 20
663.99999863922062
 30
0.0
 11
6478.0374698860514
 21
663.99999988732384
 31
0.0
  0
LINE
  5
1AB7
  8
FACILITY
 62
     7
 10
6052.0374698860478
 20
664.00000019935055
 30
0.0
 11
6052.0374698936484
 21
673.50000052097766
 31
0.0
  0
LINE
  5
1AB8
  8
FACILITY
 62
     7
 10
6352.0374698860478
 20
664.00000019935055
 30
0.0
 11
6352.0374698936484
 21
673.50000052097766
 31
0.0
  0
LINE
  5
1AB9
  8
FACILITY
 62
     7
 10
6652.0374698860478
 20
664.00000019935055
 30
0.0
 11
6652.0374698936484
 21
673.50000052097766
 31
0.0
  0
LINE
  5
1ABD
  8
FACILITY
 62
     7
 10
5627.0377754274887
 20
664.00000019935055
 30
0.0
 11
5627.0377754350902
 21
673.50000052097766
 31
0.0
  0
LINE
  5
1ABE
  8
FACILITY
 62
     7
 10
5934.5377754274887
 20
664.00000019935055
 30
0.0
 11
5934.5377754350902
 21
673.50000052097766
 31
0.0
  0
LINE
  5
1AC3
  8
FACILITY
 62
     7
 10
5572.0908520649327
 20
673.50000137611141
 30
0.0
 11
5572.0908520649327
 21
664.00000137611039
 31
0.0
  0
LINE
  5
1AC4
  8
FACILITY
 62
     7
 10
5470.0908520649327
 20
673.50000137611232
 30
0.0
 11
5470.0908520649327
 21
664.00000137611039
 31
0.0
  0
LINE
  5
1AC6
  8
FACILITY
 62
     7
 10
5722.0908521071924
 20
673.50000137610857
 30
0.0
 11
5722.0908521071924
 21
664.00000137610778
 31
0.0
  0
LINE
  5
1AC7
  8
FACILITY
 62
     7
 10
5620.0908521071924
 20
673.50000137610948
 30
0.0
 11
5620.0908521071924
 21
664.00000137610778
 31
0.0
  0
LINE
  5
1AC9
  8
FACILITY
 62
     7
 10
5872.0908520649327
 20
673.50000019935146
 30
0.0
 11
5872.0908520649327
 21
664.00000019935055
 31
0.0
  0
LINE
  5
1ACA
  8
FACILITY
 62
     7
 10
5770.0908520649318
 20
673.50000019935226
 30
0.0
 11
5770.0908520649318
 21
664.00000019935055
 31
0.0
  0
LINE
  5
1ACC
  8
FACILITY
 62
     7
 10
6022.0908520649327
 20
673.50000019935146
 30
0.0
 11
6022.0908520649327
 21
664.00000019935055
 31
0.0
  0
LINE
  5
1ACD
  8
FACILITY
 62
     7
 10
5920.0908520649327
 20
673.50000019935226
 30
0.0
 11
5920.0908520649327
 21
664.00000019935055
 31
0.0
  0
LINE
  5
1ACE
  8
FACILITY
 62
     7
 10
5470.0908521071906
 20
664.00000137610778
 30
0.0
 11
5572.0908521071924
 21
664.00000137610778
 31
0.0
  0
LINE
  5
1ACF
  8
FACILITY
 62
     7
 10
5620.0908521071924
 20
664.00000137610778
 30
0.0
 11
5722.0908521071924
 21
664.00000137610778
 31
0.0
  0
LINE
  5
1AD0
  8
FACILITY
 62
     7
 10
5770.0908521071906
 20
663.99999988732111
 30
0.0
 11
5872.0908521071906
 21
663.99999988732111
 31
0.0
  0
LINE
  5
1AD1
  8
FACILITY
 62
     7
 10
5920.0908521071906
 20
663.99999863921789
 30
0.0
 11
6022.0908521071924
 21
663.99999863921789
 31
0.0
  0
LINE
  5
1AD3
  8
FACILITY
 62
     7
 10
5620.0908521071924
 20
673.50000231218235
 30
0.0
 11
5572.0908520649327
 21
673.5000013761105
 31
0.0
  0
LINE
  5
1AD4
  8
FACILITY
 62
     7
 10
5770.0908520649318
 20
673.49999988732384
 30
0.0
 11
5722.0908521071924
 21
673.49999864509255
 31
0.0
  0
LINE
  5
1AD5
  8
FACILITY
 62
     7
 10
5770.0908520649291
 20
663.99999988732384
 30
0.0
 11
5722.0908521071924
 21
664.00000137610778
 31
0.0
  0
LINE
  5
1AD6
  8
FACILITY
 62
     7
 10
5620.0908521071924
 20
664.00000231218246
 30
0.0
 11
5572.0908520649327
 21
664.00000137611039
 31
0.0
  0
LINE
  5
1AD7
  8
FACILITY
 62
     7
 10
5920.0908520649364
 20
673.49999863922062
 30
0.0
 11
5872.0908520649364
 21
673.49999988732384
 31
0.0
  0
LINE
  5
1AD8
  8
FACILITY
 62
     7
 10
5920.0908520649327
 20
663.99999863922062
 30
0.0
 11
5872.0908520649364
 21
663.99999988732384
 31
0.0
  0
LINE
  5
1AD9
  8
FACILITY
 62
     7
 10
5446.0908520649327
 20
664.00000019935055
 30
0.0
 11
5446.0908520725334
 21
673.50000052097766
 31
0.0
  0
LINE
  5
1ADA
  8
FACILITY
 62
     7
 10
5746.0908520649318
 20
664.00000019935055
 30
0.0
 11
5746.0908520725343
 21
673.50000052097766
 31
0.0
  0
LINE
  5
1ADB
  8
FACILITY
 62
     7
 10
6046.0908520649318
 20
664.00000019935055
 30
0.0
 11
6046.0908520725334
 21
673.50000052097766
 31
0.0
  0
LINE
  5
2FA4
  8
FACILITY
 62
     7
 10
6046.0908520649318
 20
663.99999926327564
 30
0.0
 11
6046.0908520649318
 21
615.99999926327564
 31
0.0
  0
LINE
  5
2FA5
  8
FACILITY
 62
     7
 10
6046.0908520649318
 20
615.99999926327564
 30
0.0
 11
5446.0908520649327
 21
615.99999926327564
 31
0.0
  0
LINE
  5
2FA6
  8
FACILITY
 62
     7
 10
5446.0908520649327
 20
615.99999926327564
 30
0.0
 11
5446.0908520649327
 21
663.99999926327564
 31
0.0
  0
LINE
  5
2FA7
  8
FACILITY
 62
     7
 10
6040.0908520649327
 20
658.00000012708551
 30
0.0
 11
6052.0908520649327
 21
658.00000012708551
 31
0.0
  0
LINE
  5
2FA8
  8
FACILITY
 62
     7
 10
6052.0908520649327
 20
658.00000012708551
 30
0.0
 11
6052.0908520649327
 21
664.00000012708551
 31
0.0
  0
LINE
  5
2FA9
  8
FACILITY
 62
     7
 10
6052.0908520649327
 20
664.00000012708551
 30
0.0
 11
6040.0908520649327
 21
664.00000012708551
 31
0.0
  0
LINE
  5
2FAA
  8
FACILITY
 62
     7
 10
6040.0908520649327
 20
664.00000012708551
 30
0.0
 11
6040.0908520649327
 21
658.00000012708551
 31
0.0
  0
LINE
  5
2FAB
  8
FACILITY
 62
     7
 10
5440.0908520649327
 20
658.00000204723915
 30
0.0
 11
5452.0908520649327
 21
658.00000204723915
 31
0.0
  0
LINE
  5
2FAC
  8
FACILITY
 62
     7
 10
5452.0908520649327
 20
658.00000204723915
 30
0.0
 11
5452.0908520649327
 21
664.00000204723915
 31
0.0
  0
LINE
  5
2FAD
  8
FACILITY
 62
     7
 10
5452.0908520649327
 20
664.00000204723915
 30
0.0
 11
5440.0908520649327
 21
664.00000204723915
 31
0.0
  0
LINE
  5
2FAE
  8
FACILITY
 62
     7
 10
5440.0908520649327
 20
664.00000204723915
 30
0.0
 11
5440.0908520649327
 21
658.00000204723915
 31
0.0
  0
LINE
  5
2FAF
  8
FACILITY
 62
     7
 10
5917.0908520649364
 20
675.50000019935135
 30
0.0
 11
6025.0908520649373
 21
675.50000019935135
 31
0.0
  0
LINE
  5
2FB0
  8
FACILITY
 62
     7
 10
6025.0908520649373
 20
675.50000019935135
 30
0.0
 11
6025.0908520649373
 21
677.50000019935146
 31
0.0
  0
LINE
  5
2FB1
  8
FACILITY
 62
     7
 10
6025.0908520649373
 20
677.50000019935146
 30
0.0
 11
5917.0908520649364
 21
677.50000019935146
 31
0.0
  0
LINE
  5
2FB2
  8
FACILITY
 62
     7
 10
5917.0908520649364
 20
677.50000019935146
 30
0.0
 11
5917.0908520649364
 21
675.50000019935135
 31
0.0
  0
LINE
  5
2FB3
  8
FACILITY
 62
     7
 10
5767.0908520649364
 20
675.50000019935135
 30
0.0
 11
5875.0908520649364
 21
675.50000019935135
 31
0.0
  0
LINE
  5
2FB4
  8
FACILITY
 62
     7
 10
5875.0908520649364
 20
675.50000019935135
 30
0.0
 11
5875.0908520649364
 21
677.50000019935146
 31
0.0
  0
LINE
  5
2FB5
  8
FACILITY
 62
     7
 10
5875.0908520649364
 20
677.50000019935146
 30
0.0
 11
5767.0908520649364
 21
677.50000019935146
 31
0.0
  0
LINE
  5
2FB6
  8
FACILITY
 62
     7
 10
5767.0908520649364
 20
677.50000019935146
 30
0.0
 11
5767.0908520649364
 21
675.50000019935135
 31
0.0
  0
LINE
  5
2FB7
  8
FACILITY
 62
     7
 10
5617.0908521071951
 20
675.50000137610868
 30
0.0
 11
5725.0908521071951
 21
675.50000137610868
 31
0.0
  0
LINE
  5
2FB8
  8
FACILITY
 62
     7
 10
5725.0908521071951
 20
675.50000137610868
 30
0.0
 11
5725.0908521071951
 21
677.50000137610857
 31
0.0
  0
LINE
  5
2FB9
  8
FACILITY
 62
     7
 10
5725.0908521071951
 20
677.50000137610857
 30
0.0
 11
5617.0908521071951
 21
677.50000137610857
 31
0.0
  0
LINE
  5
2FBA
  8
FACILITY
 62
     7
 10
5617.0908521071951
 20
677.50000137610857
 30
0.0
 11
5617.0908521071951
 21
675.50000137610868
 31
0.0
  0
LINE
  5
2FBB
  8
FACILITY
 62
     7
 10
5467.0908520649364
 20
675.5000013761113
 30
0.0
 11
5575.0908520649373
 21
675.5000013761113
 31
0.0
  0
LINE
  5
2FBC
  8
FACILITY
 62
     7
 10
5575.0908520649373
 20
675.5000013761113
 30
0.0
 11
5575.0908520649373
 21
677.50000137611141
 31
0.0
  0
LINE
  5
2FBD
  8
FACILITY
 62
     7
 10
5575.0908520649373
 20
677.50000137611141
 30
0.0
 11
5467.0908520649364
 21
677.50000137611141
 31
0.0
  0
LINE
  5
2FBE
  8
FACILITY
 62
     7
 10
5467.0908520649364
 20
677.50000137611141
 30
0.0
 11
5467.0908520649364
 21
675.5000013761113
 31
0.0
  0
LINE
  5
2FBF
  8
FACILITY
 62
     7
 10
5935.0908520649327
 20
663.99999863922062
 30
0.0
 11
6007.0908519804188
 21
663.99999863922062
 31
0.0
  0
LINE
  5
2FC0
  8
FACILITY
 62
     7
 10
6007.0908519804188
 20
663.99999863922062
 30
0.0
 11
6007.0908519804188
 21
745.50000082339852
 31
0.0
  0
LINE
  5
2FC1
  8
FACILITY
 62
     7
 10
6007.0908519804188
 20
745.50000082339852
 30
0.0
 11
5935.0908520649327
 21
745.50000082339852
 31
0.0
  0
LINE
  5
2FC2
  8
FACILITY
 62
     7
 10
5935.0908520649327
 20
745.50000082339852
 30
0.0
 11
5935.0908520649327
 21
663.99999863922062
 31
0.0
  0
LINE
  5
2FC3
  8
FACILITY
 62
     7
 10
5785.0908520649318
 20
663.99999988732384
 30
0.0
 11
5857.0908519804188
 21
663.99999988732384
 31
0.0
  0
LINE
  5
2FC4
  8
FACILITY
 62
     7
 10
5857.0908519804188
 20
663.99999988732384
 30
0.0
 11
5857.0908519804188
 21
745.50000207150174
 31
0.0
  0
LINE
  5
2FC5
  8
FACILITY
 62
     7
 10
5857.0908519804188
 20
745.50000207150174
 30
0.0
 11
5785.0908520649318
 21
745.50000207150174
 31
0.0
  0
LINE
  5
2FC6
  8
FACILITY
 62
     7
 10
5785.0908520649318
 20
745.50000207150174
 30
0.0
 11
5785.0908520649318
 21
663.99999988732384
 31
0.0
  0
LINE
  5
2FC7
  8
FACILITY
 62
     7
 10
5635.0908521071906
 20
664.00000137610778
 30
0.0
 11
5707.0908520226776
 21
664.00000137610778
 31
0.0
  0
LINE
  5
2FC8
  8
FACILITY
 62
     7
 10
5707.0908520226776
 20
664.00000137610778
 30
0.0
 11
5707.0908520226776
 21
745.50000356028556
 31
0.0
  0
LINE
  5
2FC9
  8
FACILITY
 62
     7
 10
5707.0908520226776
 20
745.50000356028556
 30
0.0
 11
5635.0908521071906
 21
745.50000356028556
 31
0.0
  0
LINE
  5
2FCA
  8
FACILITY
 62
     7
 10
5635.0908521071906
 20
745.50000356028556
 30
0.0
 11
5635.0908521071906
 21
664.00000137610778
 31
0.0
  0
LINE
  5
2FCB
  8
FACILITY
 62
     7
 10
5485.0908520649318
 20
663.99999919193078
 30
0.0
 11
5557.0908519804188
 21
663.99999919193078
 31
0.0
  0
LINE
  5
2FCC
  8
FACILITY
 62
     7
 10
5557.0908519804188
 20
663.99999919193078
 30
0.0
 11
5557.0908519804188
 21
745.50000137610857
 31
0.0
  0
LINE
  5
2FCD
  8
FACILITY
 62
     7
 10
5557.0908519804188
 20
745.50000137610857
 30
0.0
 11
5485.0908520649318
 21
745.50000137610857
 31
0.0
  0
LINE
  5
2FCE
  8
FACILITY
 62
     7
 10
5485.0908520649318
 20
745.50000137610857
 30
0.0
 11
5485.0908520649318
 21
663.99999919193078
 31
0.0
  0
LINE
  5
2FCF
  8
FACILITY
 62
     7
 10
6652.0374698860478
 20
663.99999926327564
 30
0.0
 11
6652.0374698860478
 21
615.99999926327564
 31
0.0
  0
LINE
  5
2FD0
  8
FACILITY
 62
     7
 10
6652.0374698860478
 20
615.99999926327564
 30
0.0
 11
6052.0374698860478
 21
615.99999926327564
 31
0.0
  0
LINE
  5
2FD1
  8
FACILITY
 62
     7
 10
6052.0374698860478
 20
615.99999926327564
 30
0.0
 11
6052.0374698860478
 21
663.99999926327564
 31
0.0
  0
LINE
  5
2FD2
  8
FACILITY
 62
     7
 10
6646.0374698860478
 20
658.00000012708551
 30
0.0
 11
6658.0374698860478
 21
658.00000012708551
 31
0.0
  0
LINE
  5
2FD3
  8
FACILITY
 62
     7
 10
6658.0374698860478
 20
658.00000012708551
 30
0.0
 11
6658.0374698860478
 21
664.00000012708551
 31
0.0
  0
LINE
  5
2FD4
  8
FACILITY
 62
     7
 10
6658.0374698860478
 20
664.00000012708551
 30
0.0
 11
6646.0374698860478
 21
664.00000012708551
 31
0.0
  0
LINE
  5
2FD5
  8
FACILITY
 62
     7
 10
6646.0374698860478
 20
664.00000012708551
 30
0.0
 11
6646.0374698860478
 21
658.00000012708551
 31
0.0
  0
LINE
  5
2FD6
  8
FACILITY
 62
     7
 10
6046.0374698860478
 20
658.00000204723915
 30
0.0
 11
6058.0374698860478
 21
658.00000204723915
 31
0.0
  0
LINE
  5
2FD7
  8
FACILITY
 62
     7
 10
6058.0374698860478
 20
658.00000204723915
 30
0.0
 11
6058.0374698860478
 21
664.00000204723915
 31
0.0
  0
LINE
  5
2FD8
  8
FACILITY
 62
     7
 10
6058.0374698860478
 20
664.00000204723915
 30
0.0
 11
6046.0374698860478
 21
664.00000204723915
 31
0.0
  0
LINE
  5
2FD9
  8
FACILITY
 62
     7
 10
6046.0374698860478
 20
664.00000204723915
 30
0.0
 11
6046.0374698860478
 21
658.00000204723915
 31
0.0
  0
LINE
  5
2FDA
  8
FACILITY
 62
     7
 10
6523.0374698860523
 20
675.50000019935135
 30
0.0
 11
6631.0374698860514
 21
675.50000019935135
 31
0.0
  0
LINE
  5
2FDB
  8
FACILITY
 62
     7
 10
6631.0374698860514
 20
675.50000019935135
 30
0.0
 11
6631.0374698860514
 21
677.50000019935146
 31
0.0
  0
LINE
  5
2FDC
  8
FACILITY
 62
     7
 10
6631.0374698860514
 20
677.50000019935146
 30
0.0
 11
6523.0374698860523
 21
677.50000019935146
 31
0.0
  0
LINE
  5
2FDD
  8
FACILITY
 62
     7
 10
6523.0374698860523
 20
677.50000019935146
 30
0.0
 11
6523.0374698860523
 21
675.50000019935135
 31
0.0
  0
LINE
  5
2FDE
  8
FACILITY
 62
     7
 10
6373.0374698860514
 20
675.50000019935135
 30
0.0
 11
6481.0374698860514
 21
675.50000019935135
 31
0.0
  0
LINE
  5
2FDF
  8
FACILITY
 62
     7
 10
6481.0374698860514
 20
675.50000019935135
 30
0.0
 11
6481.0374698860514
 21
677.50000019935146
 31
0.0
  0
LINE
  5
2FE0
  8
FACILITY
 62
     7
 10
6481.0374698860514
 20
677.50000019935146
 30
0.0
 11
6373.0374698860514
 21
677.50000019935146
 31
0.0
  0
LINE
  5
2FE1
  8
FACILITY
 62
     7
 10
6373.0374698860514
 20
677.50000019935146
 30
0.0
 11
6373.0374698860514
 21
675.50000019935135
 31
0.0
  0
LINE
  5
2FE2
  8
FACILITY
 62
     7
 10
6223.0374699283111
 20
675.50000137610868
 30
0.0
 11
6331.0374699283102
 21
675.50000137610868
 31
0.0
  0
LINE
  5
2FE3
  8
FACILITY
 62
     7
 10
6331.0374699283102
 20
675.50000137610868
 30
0.0
 11
6331.0374699283102
 21
677.50000137610857
 31
0.0
  0
LINE
  5
2FE4
  8
FACILITY
 62
     7
 10
6331.0374699283102
 20
677.50000137610857
 30
0.0
 11
6223.0374699283111
 21
677.50000137610857
 31
0.0
  0
LINE
  5
2FE5
  8
FACILITY
 62
     7
 10
6223.0374699283111
 20
677.50000137610857
 30
0.0
 11
6223.0374699283111
 21
675.50000137610868
 31
0.0
  0
LINE
  5
2FE6
  8
FACILITY
 62
     7
 10
6073.0374698860523
 20
675.5000013761113
 30
0.0
 11
6181.0374698860514
 21
675.5000013761113
 31
0.0
  0
LINE
  5
2FE7
  8
FACILITY
 62
     7
 10
6181.0374698860514
 20
675.5000013761113
 30
0.0
 11
6181.0374698860514
 21
677.50000137611141
 31
0.0
  0
LINE
  5
2FE8
  8
FACILITY
 62
     7
 10
6181.0374698860514
 20
677.50000137611141
 30
0.0
 11
6073.0374698860523
 21
677.50000137611141
 31
0.0
  0
LINE
  5
2FE9
  8
FACILITY
 62
     7
 10
6073.0374698860523
 20
677.50000137611141
 30
0.0
 11
6073.0374698860523
 21
675.5000013761113
 31
0.0
  0
LINE
  5
2FEA
  8
FACILITY
 62
     7
 10
6541.0374698860478
 20
663.99999863922062
 30
0.0
 11
6613.0374698015339
 21
663.99999863922062
 31
0.0
  0
LINE
  5
2FEB
  8
FACILITY
 62
     7
 10
6613.0374698015339
 20
663.99999863922062
 30
0.0
 11
6613.0374698015339
 21
745.50000082339852
 31
0.0
  0
LINE
  5
2FEC
  8
FACILITY
 62
     7
 10
6613.0374698015339
 20
745.50000082339852
 30
0.0
 11
6541.0374698860478
 21
745.50000082339852
 31
0.0
  0
LINE
  5
2FED
  8
FACILITY
 62
     7
 10
6541.0374698860478
 20
745.50000082339852
 30
0.0
 11
6541.0374698860478
 21
663.99999863922062
 31
0.0
  0
LINE
  5
2FEE
  8
FACILITY
 62
     7
 10
6391.0374698860478
 20
663.99999988732384
 30
0.0
 11
6463.0374698015339
 21
663.99999988732384
 31
0.0
  0
LINE
  5
2FEF
  8
FACILITY
 62
     7
 10
6463.0374698015339
 20
663.99999988732384
 30
0.0
 11
6463.0374698015339
 21
745.50000207150174
 31
0.0
  0
LINE
  5
2FF0
  8
FACILITY
 62
     7
 10
6463.0374698015339
 20
745.50000207150174
 30
0.0
 11
6391.0374698860478
 21
745.50000207150174
 31
0.0
  0
LINE
  5
2FF1
  8
FACILITY
 62
     7
 10
6391.0374698860478
 20
745.50000207150174
 30
0.0
 11
6391.0374698860478
 21
663.99999988732384
 31
0.0
  0
LINE
  5
2FF2
  8
FACILITY
 62
     7
 10
6241.0374699283066
 20
664.00000137610778
 30
0.0
 11
6313.0374698437918
 21
664.00000137610778
 31
0.0
  0
LINE
  5
2FF3
  8
FACILITY
 62
     7
 10
6313.0374698437918
 20
664.00000137610778
 30
0.0
 11
6313.0374698437918
 21
745.50000356028556
 31
0.0
  0
LINE
  5
2FF4
  8
FACILITY
 62
     7
 10
6313.0374698437918
 20
745.50000356028556
 30
0.0
 11
6241.0374699283066
 21
745.50000356028556
 31
0.0
  0
LINE
  5
2FF5
  8
FACILITY
 62
     7
 10
6241.0374699283066
 20
745.50000356028556
 30
0.0
 11
6241.0374699283066
 21
664.00000137610778
 31
0.0
  0
LINE
  5
2FF6
  8
FACILITY
 62
     7
 10
6091.0374698860478
 20
663.99999919193078
 30
0.0
 11
6163.037469801533
 21
663.99999919193078
 31
0.0
  0
LINE
  5
2FF7
  8
FACILITY
 62
     7
 10
6163.037469801533
 20
663.99999919193078
 30
0.0
 11
6163.037469801533
 21
745.50000137610857
 31
0.0
  0
LINE
  5
2FF8
  8
FACILITY
 62
     7
 10
6163.037469801533
 20
745.50000137610857
 30
0.0
 11
6091.0374698860478
 21
745.50000137610857
 31
0.0
  0
LINE
  5
2FF9
  8
FACILITY
 62
     7
 10
6091.0374698860478
 20
745.50000137610857
 30
0.0
 11
6091.0374698860478
 21
663.99999919193078
 31
0.0
  0
LINE
  5
2FFA
  8
FACILITY
 62
     7
 10
907.98439324860465
 20
3438.786794032736
 30
0.0
 11
929.19759668420113
 21
3459.9999974683328
 31
0.0
  0
LINE
  5
2FFB
  8
FACILITY
 62
     7
 10
929.19759668420113
 20
3459.9999974683328
 30
0.0
 11
907.98439324860465
 21
3481.2132009039292
 31
0.0
  0
LINE
  5
2FFC
  8
FACILITY
 62
     7
 10
907.98439324860465
 20
3481.2132009039292
 30
0.0
 11
886.77118981300816
 21
3459.9999974683328
 31
0.0
  0
LINE
  5
2FFD
  8
FACILITY
 62
     7
 10
886.77118981300816
 20
3459.9999974683328
 30
0.0
 11
907.98439324860465
 21
3438.786794032736
 31
0.0
  0
POLYLINE
  5
2FFE
  8
FACILITY
 66
     1
 10
0.0
 20
0.0
 30
0.0
 70
     1
  0
VERTEX
  5
3D7D
  8
FACILITY
 10
901.48439324860465
 20
3451.9999974683328
 30
0.0
  0
VERTEX
  5
3D7E
  8
FACILITY
 10
914.48439324860465
 20
3451.9999974683328
 30
0.0
  0
VERTEX
  5
3D7F
  8
FACILITY
 10
915.98439324860465
 20
3453.4999974683328
 30
0.0
  0
VERTEX
  5
3D80
  8
FACILITY
 10
915.98439324860465
 20
3466.4999974683319
 30
0.0
  0
VERTEX
  5
3D81
  8
FACILITY
 10
914.48439324860465
 20
3467.9999974683319
 30
0.0
  0
VERTEX
  5
3D82
  8
FACILITY
 10
901.48439324860465
 20
3467.9999974683319
 30
0.0
  0
VERTEX
  5
3D83
  8
FACILITY
 10
899.98439324860453
 20
3466.4999974683319
 30
0.0
  0
VERTEX
  5
3D84
  8
FACILITY
 10
899.98439324860453
 20
3453.4999974683328
 30
0.0
  0
SEQEND
  5
3D85
  8
FACILITY
  0
LINE
  5
2FFF
  8
FACILITY
 62
     7
 10
1567.984393248604
 20
3438.786794032736
 30
0.0
 11
1589.197596684201
 21
3459.9999974683328
 31
0.0
  0
LINE
  5
3000
  8
FACILITY
 62
     7
 10
1589.197596684201
 20
3459.9999974683328
 30
0.0
 11
1567.984393248604
 21
3481.2132009039292
 31
0.0
  0
LINE
  5
3001
  8
FACILITY
 62
     7
 10
1567.984393248604
 20
3481.2132009039292
 30
0.0
 11
1546.771189813008
 21
3459.9999974683328
 31
0.0
  0
LINE
  5
3002
  8
FACILITY
 62
     7
 10
1546.771189813008
 20
3459.9999974683328
 30
0.0
 11
1567.984393248604
 21
3438.786794032736
 31
0.0
  0
POLYLINE
  5
3003
  8
FACILITY
 66
     1
 10
0.0
 20
0.0
 30
0.0
 70
     1
  0
VERTEX
  5
3D86
  8
FACILITY
 10
1561.484393248604
 20
3451.9999974683328
 30
0.0
  0
VERTEX
  5
3D87
  8
FACILITY
 10
1574.484393248604
 20
3451.9999974683328
 30
0.0
  0
VERTEX
  5
3D88
  8
FACILITY
 10
1575.984393248604
 20
3453.4999974683328
 30
0.0
  0
VERTEX
  5
3D89
  8
FACILITY
 10
1575.984393248604
 20
3466.4999974683319
 30
0.0
  0
VERTEX
  5
3D8A
  8
FACILITY
 10
1574.484393248604
 20
3467.9999974683319
 30
0.0
  0
VERTEX
  5
3D8B
  8
FACILITY
 10
1561.484393248604
 20
3467.9999974683319
 30
0.0
  0
VERTEX
  5
3D8C
  8
FACILITY
 10
1559.984393248604
 20
3466.4999974683319
 30
0.0
  0
VERTEX
  5
3D8D
  8
FACILITY
 10
1559.984393248604
 20
3453.4999974683328
 30
0.0
  0
SEQEND
  5
3D8E
  8
FACILITY
  0
LINE
  5
3004
  8
FACILITY
 62
     7
 10
2227.9843932486042
 20
3438.786794032736
 30
0.0
 11
2249.1975966842001
 21
3459.9999974683328
 31
0.0
  0
LINE
  5
3005
  8
FACILITY
 62
     7
 10
2249.1975966842001
 20
3459.9999974683328
 30
0.0
 11
2227.9843932486042
 21
3481.2132009039292
 31
0.0
  0
LINE
  5
3006
  8
FACILITY
 62
     7
 10
2227.9843932486042
 20
3481.2132009039292
 30
0.0
 11
2206.7711898130078
 21
3459.9999974683328
 31
0.0
  0
LINE
  5
3007
  8
FACILITY
 62
     7
 10
2206.7711898130078
 20
3459.9999974683328
 30
0.0
 11
2227.9843932486042
 21
3438.786794032736
 31
0.0
  0
POLYLINE
  5
3008
  8
FACILITY
 66
     1
 10
0.0
 20
0.0
 30
0.0
 70
     1
  0
VERTEX
  5
3D8F
  8
FACILITY
 10
2221.4843932486051
 20
3451.9999974683328
 30
0.0
  0
VERTEX
  5
3D90
  8
FACILITY
 10
2234.4843932486042
 20
3451.9999974683328
 30
0.0
  0
VERTEX
  5
3D91
  8
FACILITY
 10
2235.9843932486042
 20
3453.4999974683328
 30
0.0
  0
VERTEX
  5
3D92
  8
FACILITY
 10
2235.9843932486042
 20
3466.4999974683319
 30
0.0
  0
VERTEX
  5
3D93
  8
FACILITY
 10
2234.4843932486042
 20
3467.9999974683319
 30
0.0
  0
VERTEX
  5
3D94
  8
FACILITY
 10
2221.4843932486051
 20
3467.9999974683319
 30
0.0
  0
VERTEX
  5
3D95
  8
FACILITY
 10
2219.9843932486042
 20
3466.4999974683319
 30
0.0
  0
VERTEX
  5
3D96
  8
FACILITY
 10
2219.9843932486042
 20
3453.4999974683328
 30
0.0
  0
SEQEND
  5
3D97
  8
FACILITY
  0
LINE
  5
3009
  8
FACILITY
 62
     7
 10
907.98439324860465
 20
2904.786794032736
 30
0.0
 11
929.19759668420113
 21
2925.9999974683319
 31
0.0
  0
LINE
  5
300A
  8
FACILITY
 62
     7
 10
929.19759668420113
 20
2925.9999974683319
 30
0.0
 11
907.98439324860465
 21
2947.2132009039292
 31
0.0
  0
LINE
  5
300B
  8
FACILITY
 62
     7
 10
907.98439324860465
 20
2947.2132009039292
 30
0.0
 11
886.77118981300816
 21
2925.9999974683319
 31
0.0
  0
LINE
  5
300C
  8
FACILITY
 62
     7
 10
886.77118981300816
 20
2925.9999974683319
 30
0.0
 11
907.98439324860465
 21
2904.786794032736
 31
0.0
  0
POLYLINE
  5
300D
  8
FACILITY
 66
     1
 10
0.0
 20
0.0
 30
0.0
 70
     1
  0
VERTEX
  5
3D98
  8
FACILITY
 10
901.48439324860465
 20
2917.9999974683328
 30
0.0
  0
VERTEX
  5
3D99
  8
FACILITY
 10
914.48439324860465
 20
2917.9999974683328
 30
0.0
  0
VERTEX
  5
3D9A
  8
FACILITY
 10
915.98439324860465
 20
2919.4999974683319
 30
0.0
  0
VERTEX
  5
3D9B
  8
FACILITY
 10
915.98439324860465
 20
2932.4999974683328
 30
0.0
  0
VERTEX
  5
3D9C
  8
FACILITY
 10
914.48439324860465
 20
2933.9999974683328
 30
0.0
  0
VERTEX
  5
3D9D
  8
FACILITY
 10
901.48439324860465
 20
2933.9999974683328
 30
0.0
  0
VERTEX
  5
3D9E
  8
FACILITY
 10
899.98439324860453
 20
2932.4999974683328
 30
0.0
  0
VERTEX
  5
3D9F
  8
FACILITY
 10
899.98439324860453
 20
2919.4999974683319
 30
0.0
  0
SEQEND
  5
3DA0
  8
FACILITY
  0
LINE
  5
300E
  8
FACILITY
 62
     7
 10
1567.984393248604
 20
2904.786794032736
 30
0.0
 11
1589.197596684201
 21
2925.9999974683319
 31
0.0
  0
LINE
  5
300F
  8
FACILITY
 62
     7
 10
1589.197596684201
 20
2925.9999974683319
 30
0.0
 11
1567.984393248604
 21
2947.2132009039292
 31
0.0
  0
LINE
  5
3010
  8
FACILITY
 62
     7
 10
1567.984393248604
 20
2947.2132009039292
 30
0.0
 11
1546.771189813008
 21
2925.9999974683319
 31
0.0
  0
LINE
  5
3011
  8
FACILITY
 62
     7
 10
1546.771189813008
 20
2925.9999974683319
 30
0.0
 11
1567.984393248604
 21
2904.786794032736
 31
0.0
  0
POLYLINE
  5
3012
  8
FACILITY
 66
     1
 10
0.0
 20
0.0
 30
0.0
 70
     1
  0
VERTEX
  5
3DA1
  8
FACILITY
 10
1561.484393248604
 20
2917.9999974683328
 30
0.0
  0
VERTEX
  5
3DA2
  8
FACILITY
 10
1574.484393248604
 20
2917.9999974683328
 30
0.0
  0
VERTEX
  5
3DA3
  8
FACILITY
 10
1575.984393248604
 20
2919.4999974683319
 30
0.0
  0
VERTEX
  5
3DA4
  8
FACILITY
 10
1575.984393248604
 20
2932.4999974683328
 30
0.0
  0
VERTEX
  5
3DA5
  8
FACILITY
 10
1574.484393248604
 20
2933.9999974683328
 30
0.0
  0
VERTEX
  5
3DA6
  8
FACILITY
 10
1561.484393248604
 20
2933.9999974683328
 30
0.0
  0
VERTEX
  5
3DA7
  8
FACILITY
 10
1559.984393248604
 20
2932.4999974683328
 30
0.0
  0
VERTEX
  5
3DA8
  8
FACILITY
 10
1559.984393248604
 20
2919.4999974683319
 30
0.0
  0
SEQEND
  5
3DA9
  8
FACILITY
  0
LINE
  5
3013
  8
FACILITY
 62
     7
 10
2227.9843932486042
 20
2904.786794032736
 30
0.0
 11
2249.1975966842001
 21
2925.9999974683319
 31
0.0
  0
LINE
  5
3014
  8
FACILITY
 62
     7
 10
2249.1975966842001
 20
2925.9999974683319
 30
0.0
 11
2227.9843932486042
 21
2947.2132009039292
 31
0.0
  0
LINE
  5
3015
  8
FACILITY
 62
     7
 10
2227.9843932486042
 20
2947.2132009039292
 30
0.0
 11
2206.7711898130078
 21
2925.9999974683319
 31
0.0
  0
LINE
  5
3016
  8
FACILITY
 62
     7
 10
2206.7711898130078
 20
2925.9999974683319
 30
0.0
 11
2227.9843932486042
 21
2904.786794032736
 31
0.0
  0
POLYLINE
  5
3017
  8
FACILITY
 66
     1
 10
0.0
 20
0.0
 30
0.0
 70
     1
  0
VERTEX
  5
3DAA
  8
FACILITY
 10
2221.4843932486051
 20
2917.9999974683328
 30
0.0
  0
VERTEX
  5
3DAB
  8
FACILITY
 10
2234.4843932486042
 20
2917.9999974683328
 30
0.0
  0
VERTEX
  5
3DAC
  8
FACILITY
 10
2235.9843932486042
 20
2919.4999974683319
 30
0.0
  0
VERTEX
  5
3DAD
  8
FACILITY
 10
2235.9843932486042
 20
2932.4999974683328
 30
0.0
  0
VERTEX
  5
3DAE
  8
FACILITY
 10
2234.4843932486042
 20
2933.9999974683328
 30
0.0
  0
VERTEX
  5
3DAF
  8
FACILITY
 10
2221.4843932486051
 20
2933.9999974683328
 30
0.0
  0
VERTEX
  5
3DB0
  8
FACILITY
 10
2219.9843932486042
 20
2932.4999974683328
 30
0.0
  0
VERTEX
  5
3DB1
  8
FACILITY
 10
2219.9843932486042
 20
2919.4999974683319
 30
0.0
  0
SEQEND
  5
3DB2
  8
FACILITY
  0
LINE
  5
3018
  8
FACILITY
 62
     7
 10
907.98439324860465
 20
2370.786794032736
 30
0.0
 11
929.19759668420113
 21
2391.9999974683328
 31
0.0
  0
LINE
  5
3019
  8
FACILITY
 62
     7
 10
929.19759668420113
 20
2391.9999974683328
 30
0.0
 11
907.98439324860465
 21
2413.2132009039292
 31
0.0
  0
LINE
  5
301A
  8
FACILITY
 62
     7
 10
907.98439324860465
 20
2413.2132009039292
 30
0.0
 11
886.77118981300816
 21
2391.9999974683328
 31
0.0
  0
LINE
  5
301B
  8
FACILITY
 62
     7
 10
886.77118981300816
 20
2391.9999974683328
 30
0.0
 11
907.98439324860465
 21
2370.786794032736
 31
0.0
  0
POLYLINE
  5
301C
  8
FACILITY
 66
     1
 10
0.0
 20
0.0
 30
0.0
 70
     1
  0
VERTEX
  5
3DB3
  8
FACILITY
 10
901.48439324860465
 20
2383.9999974683328
 30
0.0
  0
VERTEX
  5
3DB4
  8
FACILITY
 10
914.48439324860465
 20
2383.9999974683328
 30
0.0
  0
VERTEX
  5
3DB5
  8
FACILITY
 10
915.98439324860465
 20
2385.4999974683319
 30
0.0
  0
VERTEX
  5
3DB6
  8
FACILITY
 10
915.98439324860465
 20
2398.4999974683319
 30
0.0
  0
VERTEX
  5
3DB7
  8
FACILITY
 10
914.48439324860465
 20
2399.9999974683328
 30
0.0
  0
VERTEX
  5
3DB8
  8
FACILITY
 10
901.48439324860465
 20
2399.9999974683328
 30
0.0
  0
VERTEX
  5
3DB9
  8
FACILITY
 10
899.98439324860453
 20
2398.4999974683319
 30
0.0
  0
VERTEX
  5
3DBA
  8
FACILITY
 10
899.98439324860453
 20
2385.4999974683319
 30
0.0
  0
SEQEND
  5
3DBB
  8
FACILITY
  0
LINE
  5
301D
  8
FACILITY
 62
     7
 10
1567.984393248604
 20
2370.786794032736
 30
0.0
 11
1589.197596684201
 21
2391.9999974683328
 31
0.0
  0
LINE
  5
301E
  8
FACILITY
 62
     7
 10
1589.197596684201
 20
2391.9999974683328
 30
0.0
 11
1567.984393248604
 21
2413.2132009039292
 31
0.0
  0
LINE
  5
301F
  8
FACILITY
 62
     7
 10
1567.984393248604
 20
2413.2132009039292
 30
0.0
 11
1546.771189813008
 21
2391.9999974683328
 31
0.0
  0
LINE
  5
3020
  8
FACILITY
 62
     7
 10
1546.771189813008
 20
2391.9999974683328
 30
0.0
 11
1567.984393248604
 21
2370.786794032736
 31
0.0
  0
POLYLINE
  5
3021
  8
FACILITY
 66
     1
 10
0.0
 20
0.0
 30
0.0
 70
     1
  0
VERTEX
  5
3DBC
  8
FACILITY
 10
1561.484393248604
 20
2383.9999974683328
 30
0.0
  0
VERTEX
  5
3DBD
  8
FACILITY
 10
1574.484393248604
 20
2383.9999974683328
 30
0.0
  0
VERTEX
  5
3DBE
  8
FACILITY
 10
1575.984393248604
 20
2385.4999974683319
 30
0.0
  0
VERTEX
  5
3DBF
  8
FACILITY
 10
1575.984393248604
 20
2398.4999974683319
 30
0.0
  0
VERTEX
  5
3DC0
  8
FACILITY
 10
1574.484393248604
 20
2399.9999974683328
 30
0.0
  0
VERTEX
  5
3DC1
  8
FACILITY
 10
1561.484393248604
 20
2399.9999974683328
 30
0.0
  0
VERTEX
  5
3DC2
  8
FACILITY
 10
1559.984393248604
 20
2398.4999974683319
 30
0.0
  0
VERTEX
  5
3DC3
  8
FACILITY
 10
1559.984393248604
 20
2385.4999974683319
 30
0.0
  0
SEQEND
  5
3DC4
  8
FACILITY
  0
LINE
  5
3022
  8
FACILITY
 62
     7
 10
907.98439324860465
 20
1836.786794032736
 30
0.0
 11
929.19759668420113
 21
1857.999997468333
 31
0.0
  0
LINE
  5
3023
  8
FACILITY
 62
     7
 10
929.19759668420113
 20
1857.999997468333
 30
0.0
 11
907.98439324860465
 21
1879.213200903929
 31
0.0
  0
LINE
  5
3024
  8
FACILITY
 62
     7
 10
907.98439324860465
 20
1879.213200903929
 30
0.0
 11
886.77118981300816
 21
1857.999997468333
 31
0.0
  0
LINE
  5
3025
  8
FACILITY
 62
     7
 10
886.77118981300816
 20
1857.999997468333
 30
0.0
 11
907.98439324860465
 21
1836.786794032736
 31
0.0
  0
POLYLINE
  5
3026
  8
FACILITY
 66
     1
 10
0.0
 20
0.0
 30
0.0
 70
     1
  0
VERTEX
  5
3DC5
  8
FACILITY
 10
901.48439324860465
 20
1849.999997468333
 30
0.0
  0
VERTEX
  5
3DC6
  8
FACILITY
 10
914.48439324860465
 20
1849.999997468333
 30
0.0
  0
VERTEX
  5
3DC7
  8
FACILITY
 10
915.98439324860465
 20
1851.4999974683319
 30
0.0
  0
VERTEX
  5
3DC8
  8
FACILITY
 10
915.98439324860465
 20
1864.499997468333
 30
0.0
  0
VERTEX
  5
3DC9
  8
FACILITY
 10
914.48439324860465
 20
1865.9999974683319
 30
0.0
  0
VERTEX
  5
3DCA
  8
FACILITY
 10
901.48439324860465
 20
1865.9999974683319
 30
0.0
  0
VERTEX
  5
3DCB
  8
FACILITY
 10
899.98439324860453
 20
1864.499997468333
 30
0.0
  0
VERTEX
  5
3DCC
  8
FACILITY
 10
899.98439324860453
 20
1851.4999974683319
 30
0.0
  0
SEQEND
  5
3DCD
  8
FACILITY
  0
LINE
  5
3027
  8
FACILITY
 62
     7
 10
8227.9843932486037
 20
3438.786794032736
 30
0.0
 11
8249.1975966842001
 21
3459.9999974683328
 31
0.0
  0
LINE
  5
3028
  8
FACILITY
 62
     7
 10
8249.1975966842001
 20
3459.9999974683328
 30
0.0
 11
8227.9843932486037
 21
3481.2132009039292
 31
0.0
  0
LINE
  5
3029
  8
FACILITY
 62
     7
 10
8227.9843932486037
 20
3481.2132009039292
 30
0.0
 11
8206.7711898130074
 21
3459.9999974683328
 31
0.0
  0
LINE
  5
302A
  8
FACILITY
 62
     7
 10
8206.7711898130074
 20
3459.9999974683328
 30
0.0
 11
8227.9843932486037
 21
3438.786794032736
 31
0.0
  0
POLYLINE
  5
302B
  8
FACILITY
 66
     1
 10
0.0
 20
0.0
 30
0.0
 70
     1
  0
VERTEX
  5
3DCE
  8
FACILITY
 10
8221.4843932486037
 20
3451.9999974683328
 30
0.0
  0
VERTEX
  5
3DCF
  8
FACILITY
 10
8234.4843932486056
 20
3451.9999974683328
 30
0.0
  0
VERTEX
  5
3DD0
  8
FACILITY
 10
8235.9843932486056
 20
3453.4999974683328
 30
0.0
  0
VERTEX
  5
3DD1
  8
FACILITY
 10
8235.9843932486056
 20
3466.4999974683319
 30
0.0
  0
VERTEX
  5
3DD2
  8
FACILITY
 10
8234.4843932486056
 20
3467.9999974683319
 30
0.0
  0
VERTEX
  5
3DD3
  8
FACILITY
 10
8221.4843932486037
 20
3467.9999974683319
 30
0.0
  0
VERTEX
  5
3DD4
  8
FACILITY
 10
8219.9843932486037
 20
3466.4999974683319
 30
0.0
  0
VERTEX
  5
3DD5
  8
FACILITY
 10
8219.9843932486037
 20
3453.4999974683328
 30
0.0
  0
SEQEND
  5
3DD6
  8
FACILITY
  0
LINE
  5
302C
  8
FACILITY
 62
     7
 10
7567.9843932486046
 20
3438.786794032736
 30
0.0
 11
7589.197596684201
 21
3459.9999974683328
 31
0.0
  0
LINE
  5
302D
  8
FACILITY
 62
     7
 10
7589.197596684201
 20
3459.9999974683328
 30
0.0
 11
7567.9843932486046
 21
3481.2132009039292
 31
0.0
  0
LINE
  5
302E
  8
FACILITY
 62
     7
 10
7567.9843932486046
 20
3481.2132009039292
 30
0.0
 11
7546.7711898130092
 21
3459.9999974683328
 31
0.0
  0
LINE
  5
302F
  8
FACILITY
 62
     7
 10
7546.7711898130092
 20
3459.9999974683328
 30
0.0
 11
7567.9843932486046
 21
3438.786794032736
 31
0.0
  0
POLYLINE
  5
3030
  8
FACILITY
 66
     1
 10
0.0
 20
0.0
 30
0.0
 70
     1
  0
VERTEX
  5
3DD7
  8
FACILITY
 10
7561.4843932486046
 20
3451.9999974683328
 30
0.0
  0
VERTEX
  5
3DD8
  8
FACILITY
 10
7574.4843932486046
 20
3451.9999974683328
 30
0.0
  0
VERTEX
  5
3DD9
  8
FACILITY
 10
7575.9843932486046
 20
3453.4999974683328
 30
0.0
  0
VERTEX
  5
3DDA
  8
FACILITY
 10
7575.9843932486046
 20
3466.4999974683319
 30
0.0
  0
VERTEX
  5
3DDB
  8
FACILITY
 10
7574.4843932486046
 20
3467.9999974683319
 30
0.0
  0
VERTEX
  5
3DDC
  8
FACILITY
 10
7561.4843932486046
 20
3467.9999974683319
 30
0.0
  0
VERTEX
  5
3DDD
  8
FACILITY
 10
7559.9843932486046
 20
3466.4999974683319
 30
0.0
  0
VERTEX
  5
3DDE
  8
FACILITY
 10
7559.9843932486046
 20
3453.4999974683328
 30
0.0
  0
SEQEND
  5
3DDF
  8
FACILITY
  0
LINE
  5
3031
  8
FACILITY
 62
     7
 10
6907.9843932486037
 20
3438.786794032736
 30
0.0
 11
6929.197596684201
 21
3459.9999974683319
 31
0.0
  0
LINE
  5
3032
  8
FACILITY
 62
     7
 10
6929.197596684201
 20
3459.9999974683319
 30
0.0
 11
6907.9843932486037
 21
3481.2132009039278
 31
0.0
  0
LINE
  5
3033
  8
FACILITY
 62
     7
 10
6907.9843932486037
 20
3481.2132009039278
 30
0.0
 11
6886.7711898130083
 21
3459.9999974683319
 31
0.0
  0
LINE
  5
3034
  8
FACILITY
 62
     7
 10
6886.7711898130083
 20
3459.9999974683319
 30
0.0
 11
6907.9843932486037
 21
3438.786794032736
 31
0.0
  0
POLYLINE
  5
3035
  8
FACILITY
 66
     1
 10
0.0
 20
0.0
 30
0.0
 70
     1
  0
VERTEX
  5
3DE0
  8
FACILITY
 10
6901.4843932486046
 20
3451.9999974683319
 30
0.0
  0
VERTEX
  5
3DE1
  8
FACILITY
 10
6914.4843932486046
 20
3451.9999974683319
 30
0.0
  0
VERTEX
  5
3DE2
  8
FACILITY
 10
6915.9843932486056
 20
3453.4999974683319
 30
0.0
  0
VERTEX
  5
3DE3
  8
FACILITY
 10
6915.9843932486056
 20
3466.4999974683319
 30
0.0
  0
VERTEX
  5
3DE4
  8
FACILITY
 10
6914.4843932486046
 20
3467.9999974683319
 30
0.0
  0
VERTEX
  5
3DE5
  8
FACILITY
 10
6901.4843932486046
 20
3467.9999974683319
 30
0.0
  0
VERTEX
  5
3DE6
  8
FACILITY
 10
6899.9843932486046
 20
3466.4999974683319
 30
0.0
  0
VERTEX
  5
3DE7
  8
FACILITY
 10
6899.9843932486046
 20
3453.4999974683319
 30
0.0
  0
SEQEND
  5
3DE8
  8
FACILITY
  0
LINE
  5
3036
  8
FACILITY
 62
     7
 10
8227.9843932486037
 20
2904.786794032736
 30
0.0
 11
8249.1975966842001
 21
2925.9999974683319
 31
0.0
  0
LINE
  5
3037
  8
FACILITY
 62
     7
 10
8249.1975966842001
 20
2925.9999974683319
 30
0.0
 11
8227.9843932486037
 21
2947.2132009039292
 31
0.0
  0
LINE
  5
3038
  8
FACILITY
 62
     7
 10
8227.9843932486037
 20
2947.2132009039292
 30
0.0
 11
8206.7711898130074
 21
2925.9999974683319
 31
0.0
  0
LINE
  5
3039
  8
FACILITY
 62
     7
 10
8206.7711898130074
 20
2925.9999974683319
 30
0.0
 11
8227.9843932486037
 21
2904.786794032736
 31
0.0
  0
POLYLINE
  5
303A
  8
FACILITY
 66
     1
 10
0.0
 20
0.0
 30
0.0
 70
     1
  0
VERTEX
  5
3DE9
  8
FACILITY
 10
8221.4843932486037
 20
2917.9999974683328
 30
0.0
  0
VERTEX
  5
3DEA
  8
FACILITY
 10
8234.4843932486056
 20
2917.9999974683328
 30
0.0
  0
VERTEX
  5
3DEB
  8
FACILITY
 10
8235.9843932486056
 20
2919.4999974683319
 30
0.0
  0
VERTEX
  5
3DEC
  8
FACILITY
 10
8235.9843932486056
 20
2932.4999974683328
 30
0.0
  0
VERTEX
  5
3DED
  8
FACILITY
 10
8234.4843932486056
 20
2933.9999974683328
 30
0.0
  0
VERTEX
  5
3DEE
  8
FACILITY
 10
8221.4843932486037
 20
2933.9999974683328
 30
0.0
  0
VERTEX
  5
3DEF
  8
FACILITY
 10
8219.9843932486037
 20
2932.4999974683328
 30
0.0
  0
VERTEX
  5
3DF0
  8
FACILITY
 10
8219.9843932486037
 20
2919.4999974683319
 30
0.0
  0
SEQEND
  5
3DF1
  8
FACILITY
  0
LINE
  5
303B
  8
FACILITY
 62
     7
 10
7567.9843932486046
 20
2904.786794032736
 30
0.0
 11
7589.197596684201
 21
2925.9999974683319
 31
0.0
  0
LINE
  5
303C
  8
FACILITY
 62
     7
 10
7589.197596684201
 20
2925.9999974683319
 30
0.0
 11
7567.9843932486046
 21
2947.2132009039292
 31
0.0
  0
LINE
  5
303D
  8
FACILITY
 62
     7
 10
7567.9843932486046
 20
2947.2132009039292
 30
0.0
 11
7546.7711898130092
 21
2925.9999974683319
 31
0.0
  0
LINE
  5
303E
  8
FACILITY
 62
     7
 10
7546.7711898130092
 20
2925.9999974683319
 30
0.0
 11
7567.9843932486046
 21
2904.786794032736
 31
0.0
  0
POLYLINE
  5
303F
  8
FACILITY
 66
     1
 10
0.0
 20
0.0
 30
0.0
 70
     1
  0
VERTEX
  5
3DF2
  8
FACILITY
 10
7561.4843932486046
 20
2917.9999974683328
 30
0.0
  0
VERTEX
  5
3DF3
  8
FACILITY
 10
7574.4843932486046
 20
2917.9999974683328
 30
0.0
  0
VERTEX
  5
3DF4
  8
FACILITY
 10
7575.9843932486046
 20
2919.4999974683319
 30
0.0
  0
VERTEX
  5
3DF5
  8
FACILITY
 10
7575.9843932486046
 20
2932.4999974683328
 30
0.0
  0
VERTEX
  5
3DF6
  8
FACILITY
 10
7574.4843932486046
 20
2933.9999974683328
 30
0.0
  0
VERTEX
  5
3DF7
  8
FACILITY
 10
7561.4843932486046
 20
2933.9999974683328
 30
0.0
  0
VERTEX
  5
3DF8
  8
FACILITY
 10
7559.9843932486046
 20
2932.4999974683328
 30
0.0
  0
VERTEX
  5
3DF9
  8
FACILITY
 10
7559.9843932486046
 20
2919.4999974683319
 30
0.0
  0
SEQEND
  5
3DFA
  8
FACILITY
  0
LINE
  5
3040
  8
FACILITY
 62
     7
 10
8227.9843932486037
 20
2370.786794032736
 30
0.0
 11
8249.1975966842001
 21
2391.9999974683328
 31
0.0
  0
LINE
  5
3041
  8
FACILITY
 62
     7
 10
8249.1975966842001
 20
2391.9999974683328
 30
0.0
 11
8227.9843932486037
 21
2413.2132009039292
 31
0.0
  0
LINE
  5
3042
  8
FACILITY
 62
     7
 10
8227.9843932486037
 20
2413.2132009039292
 30
0.0
 11
8206.7711898130074
 21
2391.9999974683328
 31
0.0
  0
LINE
  5
3043
  8
FACILITY
 62
     7
 10
8206.7711898130074
 20
2391.9999974683328
 30
0.0
 11
8227.9843932486037
 21
2370.786794032736
 31
0.0
  0
POLYLINE
  5
3044
  8
FACILITY
 66
     1
 10
0.0
 20
0.0
 30
0.0
 70
     1
  0
VERTEX
  5
3DFB
  8
FACILITY
 10
8221.4843932486037
 20
2383.9999974683328
 30
0.0
  0
VERTEX
  5
3DFC
  8
FACILITY
 10
8234.4843932486056
 20
2383.9999974683328
 30
0.0
  0
VERTEX
  5
3DFD
  8
FACILITY
 10
8235.9843932486056
 20
2385.4999974683319
 30
0.0
  0
VERTEX
  5
3DFE
  8
FACILITY
 10
8235.9843932486056
 20
2398.4999974683319
 30
0.0
  0
VERTEX
  5
3DFF
  8
FACILITY
 10
8234.4843932486056
 20
2399.9999974683328
 30
0.0
  0
VERTEX
  5
3E00
  8
FACILITY
 10
8221.4843932486037
 20
2399.9999974683328
 30
0.0
  0
VERTEX
  5
3E01
  8
FACILITY
 10
8219.9843932486037
 20
2398.4999974683319
 30
0.0
  0
VERTEX
  5
3E02
  8
FACILITY
 10
8219.9843932486037
 20
2385.4999974683319
 30
0.0
  0
SEQEND
  5
3E03
  8
FACILITY
  0
LINE
  5
3051
  8
FACILITY
 62
     7
 10
3967.9843932486042
 20
664.00000019935135
 30
0.0
 11
3967.9843932486042
 21
616.00000019935135
 31
0.0
  0
LINE
  5
3052
  8
FACILITY
 62
     7
 10
3967.9843932486042
 20
616.00000019935135
 30
0.0
 11
1687.984393248604
 21
616.0000001993526
 31
0.0
  0
LINE
  5
3053
  8
FACILITY
 62
     7
 10
1687.984393248604
 20
616.0000001993526
 30
0.0
 11
1687.984393248604
 21
664.00000019935248
 31
0.0
  0
LINE
  5
30FB
  8
FACILITY
 62
     1
 10
2441.734393248606
 20
673.62500175948276
 30
0.0
 11
2445.796893248606
 21
673.62500175948276
 31
0.0
  0
LINE
  5
30FC
  8
FACILITY
 62
     1
 10
2445.796893248606
 20
673.62500175948276
 30
0.0
 11
2445.796893248606
 21
674.09375175948276
 31
0.0
  0
LINE
  5
30FD
  8
FACILITY
 62
     1
 10
2445.796893248606
 20
674.09375175948276
 30
0.0
 11
2441.890643248606
 21
674.09375175948276
 31
0.0
  0
LINE
  5
30FE
  8
FACILITY
 62
     1
 10
2441.890643248606
 20
674.09375175948276
 30
0.0
 11
2441.890643248606
 21
683.00000175948276
 31
0.0
  0
LINE
  5
30FF
  8
FACILITY
 62
     1
 10
2441.890643248606
 20
683.00000175948276
 30
0.0
 11
2445.796893248606
 21
683.00000175948276
 31
0.0
  0
LINE
  5
3100
  8
FACILITY
 62
     1
 10
2445.796893248606
 20
683.00000175948276
 30
0.0
 11
2445.796893248606
 21
683.46875175948276
 31
0.0
  0
LINE
  5
3101
  8
FACILITY
 62
     1
 10
2445.796893248606
 20
683.46875175948276
 30
0.0
 11
2437.671893248606
 21
683.46875175948276
 31
0.0
  0
LINE
  5
3102
  8
FACILITY
 62
     1
 10
2437.671893248606
 20
683.46875175948276
 30
0.0
 11
2437.671893248606
 21
683.00000175948276
 31
0.0
  0
LINE
  5
3103
  8
FACILITY
 62
     1
 10
2437.671893248606
 20
683.00000175948276
 30
0.0
 11
2441.578143248606
 21
683.00000175948276
 31
0.0
  0
LINE
  5
3104
  8
FACILITY
 62
     1
 10
2441.578143248606
 20
683.00000175948276
 30
0.0
 11
2441.578143248606
 21
674.09375175948276
 31
0.0
  0
LINE
  5
3105
  8
FACILITY
 62
     1
 10
2441.578143248606
 20
674.09375175948276
 30
0.0
 11
2437.671893248606
 21
674.09375175948276
 31
0.0
  0
LINE
  5
3106
  8
FACILITY
 62
     1
 10
2437.671893248606
 20
674.09375175948276
 30
0.0
 11
2437.671893248606
 21
673.62500175948276
 31
0.0
  0
LINE
  5
3107
  8
FACILITY
 62
     1
 10
2437.671893248606
 20
673.62500175948276
 30
0.0
 11
2441.734393248606
 21
673.62500175948276
 31
0.0
  0
LINE
  5
3108
  8
FACILITY
 62
     1
 10
2287.9843932486042
 20
673.62500019935351
 30
0.0
 11
2292.0468932486042
 21
673.62500019935351
 31
0.0
  0
LINE
  5
3109
  8
FACILITY
 62
     1
 10
2292.0468932486042
 20
673.62500019935351
 30
0.0
 11
2292.0468932486042
 21
674.09375019935351
 31
0.0
  0
LINE
  5
310A
  8
FACILITY
 62
     1
 10
2292.0468932486042
 20
674.09375019935351
 30
0.0
 11
2288.1406432486042
 21
674.09375019935351
 31
0.0
  0
LINE
  5
310B
  8
FACILITY
 62
     1
 10
2288.1406432486042
 20
674.09375019935351
 30
0.0
 11
2288.1406432486042
 21
683.00000019935351
 31
0.0
  0
LINE
  5
310C
  8
FACILITY
 62
     1
 10
2288.1406432486042
 20
683.00000019935351
 30
0.0
 11
2292.0468932486042
 21
683.00000019935351
 31
0.0
  0
LINE
  5
310D
  8
FACILITY
 62
     1
 10
2292.0468932486042
 20
683.00000019935351
 30
0.0
 11
2292.0468932486042
 21
683.46875019935351
 31
0.0
  0
LINE
  5
310E
  8
FACILITY
 62
     1
 10
2292.0468932486042
 20
683.46875019935351
 30
0.0
 11
2283.9218932486042
 21
683.46875019935351
 31
0.0
  0
LINE
  5
310F
  8
FACILITY
 62
     1
 10
2283.9218932486042
 20
683.46875019935351
 30
0.0
 11
2283.9218932486042
 21
683.00000019935351
 31
0.0
  0
LINE
  5
3110
  8
FACILITY
 62
     1
 10
2283.9218932486042
 20
683.00000019935351
 30
0.0
 11
2287.8281432486042
 21
683.00000019935351
 31
0.0
  0
LINE
  5
3111
  8
FACILITY
 62
     1
 10
2287.8281432486042
 20
683.00000019935351
 30
0.0
 11
2287.8281432486042
 21
674.09375019935351
 31
0.0
  0
LINE
  5
3112
  8
FACILITY
 62
     1
 10
2287.8281432486042
 20
674.09375019935351
 30
0.0
 11
2283.9218932486042
 21
674.09375019935351
 31
0.0
  0
LINE
  5
3113
  8
FACILITY
 62
     1
 10
2283.9218932486042
 20
674.09375019935351
 30
0.0
 11
2283.9218932486042
 21
673.62500019935351
 31
0.0
  0
LINE
  5
3114
  8
FACILITY
 62
     1
 10
2283.9218932486042
 20
673.62500019935351
 30
0.0
 11
2287.9843932486042
 21
673.62500019935351
 31
0.0
  0
LINE
  5
3115
  8
FACILITY
 62
     7
 10
2464.6093932063491
 20
675.50000175947957
 30
-10.0
 11
2572.6093932063491
 21
675.50000175947957
 31
-10.0
  0
LINE
  5
3116
  8
FACILITY
 62
     7
 10
2572.6093932063491
 20
675.50000175947957
 30
-10.0
 11
2572.6093932063491
 21
677.50000175947969
 31
-10.0
  0
LINE
  5
3117
  8
FACILITY
 62
     7
 10
2572.6093932063491
 20
677.50000175947969
 30
-10.0
 11
2464.6093932063491
 21
677.50000175947969
 31
-10.0
  0
LINE
  5
3118
  8
FACILITY
 62
     7
 10
2464.6093932063491
 20
677.50000175947969
 30
-10.0
 11
2464.6093932063491
 21
675.50000175947957
 31
-10.0
  0
LINE
  5
3119
  8
FACILITY
 62
     7
 10
2482.6093932486042
 20
664.00000175947685
 30
-10.0
 11
2554.6093931640899
 21
664.00000175947685
 31
-10.0
  0
LINE
  5
311A
  8
FACILITY
 62
     7
 10
2554.6093931640899
 20
664.00000175947685
 30
-10.0
 11
2554.6093931640899
 21
745.50000394365475
 31
-10.0
  0
LINE
  5
311B
  8
FACILITY
 62
     7
 10
2554.6093931640899
 20
745.50000394365475
 30
-10.0
 11
2482.6093932486042
 21
745.50000394365475
 31
-10.0
  0
LINE
  5
311C
  8
FACILITY
 62
     7
 10
2482.6093932486042
 20
745.50000394365475
 30
-10.0
 11
2482.6093932486042
 21
664.00000175947685
 31
-10.0
  0
LINE
  5
311D
  8
FACILITY
 62
     7
 10
2310.8593932063491
 20
675.50000051137908
 30
-10.0
 11
2418.85939320635
 21
675.50000051137908
 31
-10.0
  0
LINE
  5
311E
  8
FACILITY
 62
     7
 10
2418.85939320635
 20
675.50000051137908
 30
-10.0
 11
2418.85939320635
 21
677.5000005113792
 31
-10.0
  0
LINE
  5
311F
  8
FACILITY
 62
     7
 10
2418.85939320635
 20
677.5000005113792
 30
-10.0
 11
2310.8593932063491
 21
677.5000005113792
 31
-10.0
  0
LINE
  5
3120
  8
FACILITY
 62
     7
 10
2310.8593932063491
 20
677.5000005113792
 30
-10.0
 11
2310.8593932063491
 21
675.50000051137908
 31
-10.0
  0
LINE
  5
3121
  8
FACILITY
 62
     7
 10
2328.8593932486042
 20
664.00000051137647
 30
-10.0
 11
2400.8593931640912
 21
664.00000051137647
 31
-10.0
  0
LINE
  5
3122
  8
FACILITY
 62
     7
 10
2400.8593931640912
 20
664.00000051137647
 30
-10.0
 11
2400.8593931640912
 21
745.50000269555426
 31
-10.0
  0
LINE
  5
3123
  8
FACILITY
 62
     7
 10
2400.8593931640912
 20
745.50000269555426
 30
-10.0
 11
2328.8593932486042
 21
745.50000269555426
 31
-10.0
  0
LINE
  5
3124
  8
FACILITY
 62
     7
 10
2328.8593932486042
 20
745.50000269555426
 30
-10.0
 11
2328.8593932486042
 21
664.00000051137647
 31
-10.0
  0
LINE
  5
3125
  8
FACILITY
 62
     1
 10
2749.234393248606
 20
673.62500175948276
 30
0.0
 11
2753.296893248606
 21
673.62500175948276
 31
0.0
  0
LINE
  5
3126
  8
FACILITY
 62
     1
 10
2753.296893248606
 20
673.62500175948276
 30
0.0
 11
2753.296893248606
 21
674.09375175948276
 31
0.0
  0
LINE
  5
3127
  8
FACILITY
 62
     1
 10
2753.296893248606
 20
674.09375175948276
 30
0.0
 11
2749.390643248606
 21
674.09375175948276
 31
0.0
  0
LINE
  5
3128
  8
FACILITY
 62
     1
 10
2749.390643248606
 20
674.09375175948276
 30
0.0
 11
2749.390643248606
 21
683.00000175948276
 31
0.0
  0
LINE
  5
3129
  8
FACILITY
 62
     1
 10
2749.390643248606
 20
683.00000175948276
 30
0.0
 11
2753.296893248606
 21
683.00000175948276
 31
0.0
  0
LINE
  5
312A
  8
FACILITY
 62
     1
 10
2753.296893248606
 20
683.00000175948276
 30
0.0
 11
2753.296893248606
 21
683.46875175948276
 31
0.0
  0
LINE
  5
312B
  8
FACILITY
 62
     1
 10
2753.296893248606
 20
683.46875175948276
 30
0.0
 11
2745.171893248606
 21
683.46875175948276
 31
0.0
  0
LINE
  5
312C
  8
FACILITY
 62
     1
 10
2745.171893248606
 20
683.46875175948276
 30
0.0
 11
2745.171893248606
 21
683.00000175948276
 31
0.0
  0
LINE
  5
312D
  8
FACILITY
 62
     1
 10
2745.171893248606
 20
683.00000175948276
 30
0.0
 11
2749.078143248606
 21
683.00000175948276
 31
0.0
  0
LINE
  5
312E
  8
FACILITY
 62
     1
 10
2749.078143248606
 20
683.00000175948276
 30
0.0
 11
2749.078143248606
 21
674.09375175948276
 31
0.0
  0
LINE
  5
312F
  8
FACILITY
 62
     1
 10
2749.078143248606
 20
674.09375175948276
 30
0.0
 11
2745.171893248606
 21
674.09375175948276
 31
0.0
  0
LINE
  5
3130
  8
FACILITY
 62
     1
 10
2745.171893248606
 20
674.09375175948276
 30
0.0
 11
2745.171893248606
 21
673.62500175948276
 31
0.0
  0
LINE
  5
3131
  8
FACILITY
 62
     1
 10
2745.171893248606
 20
673.62500175948276
 30
0.0
 11
2749.234393248606
 21
673.62500175948276
 31
0.0
  0
LINE
  5
3132
  8
FACILITY
 62
     1
 10
2595.4843932486042
 20
673.62500019935351
 30
0.0
 11
2599.5468932486042
 21
673.62500019935351
 31
0.0
  0
LINE
  5
3133
  8
FACILITY
 62
     1
 10
2599.5468932486042
 20
673.62500019935351
 30
0.0
 11
2599.5468932486042
 21
674.09375019935351
 31
0.0
  0
LINE
  5
3134
  8
FACILITY
 62
     1
 10
2599.5468932486042
 20
674.09375019935351
 30
0.0
 11
2595.6406432486042
 21
674.09375019935351
 31
0.0
  0
LINE
  5
3135
  8
FACILITY
 62
     1
 10
2595.6406432486042
 20
674.09375019935351
 30
0.0
 11
2595.6406432486042
 21
683.00000019935351
 31
0.0
  0
LINE
  5
3136
  8
FACILITY
 62
     1
 10
2595.6406432486042
 20
683.00000019935351
 30
0.0
 11
2599.5468932486042
 21
683.00000019935351
 31
0.0
  0
LINE
  5
3137
  8
FACILITY
 62
     1
 10
2599.5468932486042
 20
683.00000019935351
 30
0.0
 11
2599.5468932486042
 21
683.46875019935351
 31
0.0
  0
LINE
  5
3138
  8
FACILITY
 62
     1
 10
2599.5468932486042
 20
683.46875019935351
 30
0.0
 11
2591.4218932486042
 21
683.46875019935351
 31
0.0
  0
LINE
  5
3139
  8
FACILITY
 62
     1
 10
2591.4218932486042
 20
683.46875019935351
 30
0.0
 11
2591.4218932486042
 21
683.00000019935351
 31
0.0
  0
LINE
  5
313A
  8
FACILITY
 62
     1
 10
2591.4218932486042
 20
683.00000019935351
 30
0.0
 11
2595.3281432486042
 21
683.00000019935351
 31
0.0
  0
LINE
  5
313B
  8
FACILITY
 62
     1
 10
2595.3281432486042
 20
683.00000019935351
 30
0.0
 11
2595.3281432486042
 21
674.09375019935351
 31
0.0
  0
LINE
  5
313C
  8
FACILITY
 62
     1
 10
2595.3281432486042
 20
674.09375019935351
 30
0.0
 11
2591.4218932486042
 21
674.09375019935351
 31
0.0
  0
LINE
  5
313D
  8
FACILITY
 62
     1
 10
2591.4218932486042
 20
674.09375019935351
 30
0.0
 11
2591.4218932486042
 21
673.62500019935351
 31
0.0
  0
LINE
  5
313E
  8
FACILITY
 62
     1
 10
2591.4218932486042
 20
673.62500019935351
 30
0.0
 11
2595.4843932486042
 21
673.62500019935351
 31
0.0
  0
LINE
  5
313F
  8
FACILITY
 62
     7
 10
2772.1093932063491
 20
675.50000175947957
 30
-10.0
 11
2880.1093932063491
 21
675.50000175947957
 31
-10.0
  0
LINE
  5
3140
  8
FACILITY
 62
     7
 10
2880.1093932063491
 20
675.50000175947957
 30
-10.0
 11
2880.1093932063491
 21
677.50000175947969
 31
-10.0
  0
LINE
  5
3141
  8
FACILITY
 62
     7
 10
2880.1093932063491
 20
677.50000175947969
 30
-10.0
 11
2772.1093932063491
 21
677.50000175947969
 31
-10.0
  0
LINE
  5
3142
  8
FACILITY
 62
     7
 10
2772.1093932063491
 20
677.50000175947969
 30
-10.0
 11
2772.1093932063491
 21
675.50000175947957
 31
-10.0
  0
LINE
  5
3143
  8
FACILITY
 62
     7
 10
2790.1093932486042
 20
664.00000175947685
 30
-10.0
 11
2862.1093931640899
 21
664.00000175947685
 31
-10.0
  0
LINE
  5
3144
  8
FACILITY
 62
     7
 10
2862.1093931640899
 20
664.00000175947685
 30
-10.0
 11
2862.1093931640899
 21
745.50000394365475
 31
-10.0
  0
LINE
  5
3145
  8
FACILITY
 62
     7
 10
2862.1093931640899
 20
745.50000394365475
 30
-10.0
 11
2790.1093932486042
 21
745.50000394365475
 31
-10.0
  0
LINE
  5
3146
  8
FACILITY
 62
     7
 10
2790.1093932486042
 20
745.50000394365475
 30
-10.0
 11
2790.1093932486042
 21
664.00000175947685
 31
-10.0
  0
LINE
  5
3147
  8
FACILITY
 62
     7
 10
2618.3593932063491
 20
675.50000051137908
 30
-10.0
 11
2726.3593932063491
 21
675.50000051137908
 31
-10.0
  0
LINE
  5
3148
  8
FACILITY
 62
     7
 10
2726.3593932063491
 20
675.50000051137908
 30
-10.0
 11
2726.3593932063491
 21
677.5000005113792
 31
-10.0
  0
LINE
  5
3149
  8
FACILITY
 62
     7
 10
2726.3593932063491
 20
677.5000005113792
 30
-10.0
 11
2618.3593932063491
 21
677.5000005113792
 31
-10.0
  0
LINE
  5
314A
  8
FACILITY
 62
     7
 10
2618.3593932063491
 20
677.5000005113792
 30
-10.0
 11
2618.3593932063491
 21
675.50000051137908
 31
-10.0
  0
LINE
  5
314B
  8
FACILITY
 62
     7
 10
2636.3593932486042
 20
664.00000051137647
 30
-10.0
 11
2708.3593931640912
 21
664.00000051137647
 31
-10.0
  0
LINE
  5
314C
  8
FACILITY
 62
     7
 10
2708.3593931640912
 20
664.00000051137647
 30
-10.0
 11
2708.3593931640912
 21
745.50000269555426
 31
-10.0
  0
LINE
  5
314D
  8
FACILITY
 62
     7
 10
2708.3593931640912
 20
745.50000269555426
 30
-10.0
 11
2636.3593932486042
 21
745.50000269555426
 31
-10.0
  0
LINE
  5
314E
  8
FACILITY
 62
     7
 10
2636.3593932486042
 20
745.50000269555426
 30
-10.0
 11
2636.3593932486042
 21
664.00000051137647
 31
-10.0
  0
LINE
  5
314F
  8
FACILITY
 62
     1
 10
3056.734393248606
 20
673.62500175948276
 30
0.0
 11
3060.796893248606
 21
673.62500175948276
 31
0.0
  0
LINE
  5
3150
  8
FACILITY
 62
     1
 10
3060.796893248606
 20
673.62500175948276
 30
0.0
 11
3060.796893248606
 21
674.09375175948276
 31
0.0
  0
LINE
  5
3151
  8
FACILITY
 62
     1
 10
3060.796893248606
 20
674.09375175948276
 30
0.0
 11
3056.890643248606
 21
674.09375175948276
 31
0.0
  0
LINE
  5
3152
  8
FACILITY
 62
     1
 10
3056.890643248606
 20
674.09375175948276
 30
0.0
 11
3056.890643248606
 21
683.00000175948276
 31
0.0
  0
LINE
  5
3153
  8
FACILITY
 62
     1
 10
3056.890643248606
 20
683.00000175948276
 30
0.0
 11
3060.796893248606
 21
683.00000175948276
 31
0.0
  0
LINE
  5
3154
  8
FACILITY
 62
     1
 10
3060.796893248606
 20
683.00000175948276
 30
0.0
 11
3060.796893248606
 21
683.46875175948276
 31
0.0
  0
LINE
  5
3155
  8
FACILITY
 62
     1
 10
3060.796893248606
 20
683.46875175948276
 30
0.0
 11
3052.671893248606
 21
683.46875175948276
 31
0.0
  0
LINE
  5
3156
  8
FACILITY
 62
     1
 10
3052.671893248606
 20
683.46875175948276
 30
0.0
 11
3052.671893248606
 21
683.00000175948276
 31
0.0
  0
LINE
  5
3157
  8
FACILITY
 62
     1
 10
3052.671893248606
 20
683.00000175948276
 30
0.0
 11
3056.578143248606
 21
683.00000175948276
 31
0.0
  0
LINE
  5
3158
  8
FACILITY
 62
     1
 10
3056.578143248606
 20
683.00000175948276
 30
0.0
 11
3056.578143248606
 21
674.09375175948276
 31
0.0
  0
LINE
  5
3159
  8
FACILITY
 62
     1
 10
3056.578143248606
 20
674.09375175948276
 30
0.0
 11
3052.671893248606
 21
674.09375175948276
 31
0.0
  0
LINE
  5
315A
  8
FACILITY
 62
     1
 10
3052.671893248606
 20
674.09375175948276
 30
0.0
 11
3052.671893248606
 21
673.62500175948276
 31
0.0
  0
LINE
  5
315B
  8
FACILITY
 62
     1
 10
3052.671893248606
 20
673.62500175948276
 30
0.0
 11
3056.734393248606
 21
673.62500175948276
 31
0.0
  0
LINE
  5
315C
  8
FACILITY
 62
     1
 10
2902.9843932486042
 20
673.62500019935351
 30
0.0
 11
2907.0468932486051
 21
673.62500019935351
 31
0.0
  0
LINE
  5
315D
  8
FACILITY
 62
     1
 10
2907.0468932486051
 20
673.62500019935351
 30
0.0
 11
2907.0468932486051
 21
674.09375019935351
 31
0.0
  0
LINE
  5
315E
  8
FACILITY
 62
     1
 10
2907.0468932486051
 20
674.09375019935351
 30
0.0
 11
2903.1406432486051
 21
674.09375019935351
 31
0.0
  0
LINE
  5
315F
  8
FACILITY
 62
     1
 10
2903.1406432486051
 20
674.09375019935351
 30
0.0
 11
2903.1406432486051
 21
683.00000019935351
 31
0.0
  0
LINE
  5
3160
  8
FACILITY
 62
     1
 10
2903.1406432486051
 20
683.00000019935351
 30
0.0
 11
2907.0468932486051
 21
683.00000019935351
 31
0.0
  0
LINE
  5
3161
  8
FACILITY
 62
     1
 10
2907.0468932486051
 20
683.00000019935351
 30
0.0
 11
2907.0468932486051
 21
683.46875019935351
 31
0.0
  0
LINE
  5
3162
  8
FACILITY
 62
     1
 10
2907.0468932486051
 20
683.46875019935351
 30
0.0
 11
2898.9218932486051
 21
683.46875019935351
 31
0.0
  0
LINE
  5
3163
  8
FACILITY
 62
     1
 10
2898.9218932486051
 20
683.46875019935351
 30
0.0
 11
2898.9218932486051
 21
683.00000019935351
 31
0.0
  0
LINE
  5
3164
  8
FACILITY
 62
     1
 10
2898.9218932486051
 20
683.00000019935351
 30
0.0
 11
2902.8281432486051
 21
683.00000019935351
 31
0.0
  0
LINE
  5
3165
  8
FACILITY
 62
     1
 10
2902.8281432486051
 20
683.00000019935351
 30
0.0
 11
2902.8281432486051
 21
674.09375019935351
 31
0.0
  0
LINE
  5
3166
  8
FACILITY
 62
     1
 10
2902.8281432486051
 20
674.09375019935351
 30
0.0
 11
2898.9218932486051
 21
674.09375019935351
 31
0.0
  0
LINE
  5
3167
  8
FACILITY
 62
     1
 10
2898.9218932486051
 20
674.09375019935351
 30
0.0
 11
2898.9218932486051
 21
673.62500019935351
 31
0.0
  0
LINE
  5
3168
  8
FACILITY
 62
     1
 10
2898.9218932486051
 20
673.62500019935351
 30
0.0
 11
2902.9843932486042
 21
673.62500019935351
 31
0.0
  0
LINE
  5
3169
  8
FACILITY
 62
     7
 10
3079.6093932063491
 20
675.50000175947957
 30
-10.0
 11
3187.6093932063491
 21
675.50000175947957
 31
-10.0
  0
LINE
  5
316A
  8
FACILITY
 62
     7
 10
3187.6093932063491
 20
675.50000175947957
 30
-10.0
 11
3187.6093932063491
 21
677.50000175947969
 31
-10.0
  0
LINE
  5
316B
  8
FACILITY
 62
     7
 10
3187.6093932063491
 20
677.50000175947969
 30
-10.0
 11
3079.6093932063491
 21
677.50000175947969
 31
-10.0
  0
LINE
  5
316C
  8
FACILITY
 62
     7
 10
3079.6093932063491
 20
677.50000175947969
 30
-10.0
 11
3079.6093932063491
 21
675.50000175947957
 31
-10.0
  0
LINE
  5
316D
  8
FACILITY
 62
     7
 10
3097.6093932486051
 20
664.00000175947685
 30
-10.0
 11
3169.6093931640899
 21
664.00000175947685
 31
-10.0
  0
LINE
  5
316E
  8
FACILITY
 62
     7
 10
3169.6093931640899
 20
664.00000175947685
 30
-10.0
 11
3169.6093931640899
 21
745.50000394365475
 31
-10.0
  0
LINE
  5
316F
  8
FACILITY
 62
     7
 10
3169.6093931640899
 20
745.50000394365475
 30
-10.0
 11
3097.6093932486051
 21
745.50000394365475
 31
-10.0
  0
LINE
  5
3170
  8
FACILITY
 62
     7
 10
3097.6093932486051
 20
745.50000394365475
 30
-10.0
 11
3097.6093932486051
 21
664.00000175947685
 31
-10.0
  0
LINE
  5
3171
  8
FACILITY
 62
     7
 10
2925.8593932063491
 20
675.50000051137908
 30
-10.0
 11
3033.8593932063491
 21
675.50000051137908
 31
-10.0
  0
LINE
  5
3172
  8
FACILITY
 62
     7
 10
3033.8593932063491
 20
675.50000051137908
 30
-10.0
 11
3033.8593932063491
 21
677.5000005113792
 31
-10.0
  0
LINE
  5
3173
  8
FACILITY
 62
     7
 10
3033.8593932063491
 20
677.5000005113792
 30
-10.0
 11
2925.8593932063491
 21
677.5000005113792
 31
-10.0
  0
LINE
  5
3174
  8
FACILITY
 62
     7
 10
2925.8593932063491
 20
677.5000005113792
 30
-10.0
 11
2925.8593932063491
 21
675.50000051137908
 31
-10.0
  0
LINE
  5
3175
  8
FACILITY
 62
     7
 10
2943.8593932486051
 20
664.00000051137647
 30
-10.0
 11
3015.8593931640899
 21
664.00000051137647
 31
-10.0
  0
LINE
  5
3176
  8
FACILITY
 62
     7
 10
3015.8593931640899
 20
664.00000051137647
 30
-10.0
 11
3015.8593931640899
 21
745.50000269555426
 31
-10.0
  0
LINE
  5
3177
  8
FACILITY
 62
     7
 10
3015.8593931640899
 20
745.50000269555426
 30
-10.0
 11
2943.8593932486051
 21
745.50000269555426
 31
-10.0
  0
LINE
  5
3178
  8
FACILITY
 62
     7
 10
2943.8593932486051
 20
745.50000269555426
 30
-10.0
 11
2943.8593932486051
 21
664.00000051137647
 31
-10.0
  0
LINE
  5
3179
  8
FACILITY
 62
     1
 10
3210.4843932486042
 20
673.62500019935123
 30
0.0
 11
3214.5468932486042
 21
673.62500019935123
 31
0.0
  0
LINE
  5
317A
  8
FACILITY
 62
     1
 10
3214.5468932486042
 20
673.62500019935123
 30
0.0
 11
3214.5468932486042
 21
674.09375019935123
 31
0.0
  0
LINE
  5
317B
  8
FACILITY
 62
     1
 10
3214.5468932486042
 20
674.09375019935123
 30
0.0
 11
3210.6406432486042
 21
674.09375019935123
 31
0.0
  0
LINE
  5
317C
  8
FACILITY
 62
     1
 10
3210.6406432486042
 20
674.09375019935123
 30
0.0
 11
3210.6406432486042
 21
683.00000019935123
 31
0.0
  0
LINE
  5
317D
  8
FACILITY
 62
     1
 10
3210.6406432486042
 20
683.00000019935123
 30
0.0
 11
3214.5468932486042
 21
683.00000019935123
 31
0.0
  0
LINE
  5
317E
  8
FACILITY
 62
     1
 10
3214.5468932486042
 20
683.00000019935123
 30
0.0
 11
3214.5468932486042
 21
683.46875019935123
 31
0.0
  0
LINE
  5
317F
  8
FACILITY
 62
     1
 10
3214.5468932486042
 20
683.46875019935123
 30
0.0
 11
3206.4218932486051
 21
683.46875019935123
 31
0.0
  0
LINE
  5
3180
  8
FACILITY
 62
     1
 10
3206.4218932486051
 20
683.46875019935123
 30
0.0
 11
3206.4218932486051
 21
683.00000019935123
 31
0.0
  0
LINE
  5
3181
  8
FACILITY
 62
     1
 10
3206.4218932486051
 20
683.00000019935123
 30
0.0
 11
3210.3281432486051
 21
683.00000019935123
 31
0.0
  0
LINE
  5
3182
  8
FACILITY
 62
     1
 10
3210.3281432486051
 20
683.00000019935123
 30
0.0
 11
3210.3281432486051
 21
674.09375019935123
 31
0.0
  0
LINE
  5
3183
  8
FACILITY
 62
     1
 10
3210.3281432486051
 20
674.09375019935123
 30
0.0
 11
3206.4218932486051
 21
674.09375019935123
 31
0.0
  0
LINE
  5
3184
  8
FACILITY
 62
     1
 10
3206.4218932486051
 20
674.09375019935123
 30
0.0
 11
3206.4218932486051
 21
673.62500019935123
 31
0.0
  0
LINE
  5
3185
  8
FACILITY
 62
     1
 10
3206.4218932486051
 20
673.62500019935123
 30
0.0
 11
3210.4843932486042
 21
673.62500019935123
 31
0.0
  0
LINE
  5
3186
  8
FACILITY
 62
     1
 10
3364.234393248606
 20
673.62500175948435
 30
0.0
 11
3368.296893248606
 21
673.62500175948435
 31
0.0
  0
LINE
  5
3187
  8
FACILITY
 62
     1
 10
3368.296893248606
 20
673.62500175948435
 30
0.0
 11
3368.296893248606
 21
674.09375175948435
 31
0.0
  0
LINE
  5
3188
  8
FACILITY
 62
     1
 10
3368.296893248606
 20
674.09375175948435
 30
0.0
 11
3364.390643248606
 21
674.09375175948435
 31
0.0
  0
LINE
  5
3189
  8
FACILITY
 62
     1
 10
3364.390643248606
 20
674.09375175948435
 30
0.0
 11
3364.390643248606
 21
683.00000175948435
 31
0.0
  0
LINE
  5
318A
  8
FACILITY
 62
     1
 10
3364.390643248606
 20
683.00000175948435
 30
0.0
 11
3368.296893248606
 21
683.00000175948435
 31
0.0
  0
LINE
  5
318B
  8
FACILITY
 62
     1
 10
3368.296893248606
 20
683.00000175948435
 30
0.0
 11
3368.296893248606
 21
683.46875175948435
 31
0.0
  0
LINE
  5
318C
  8
FACILITY
 62
     1
 10
3368.296893248606
 20
683.46875175948435
 30
0.0
 11
3360.171893248606
 21
683.46875175948435
 31
0.0
  0
LINE
  5
318D
  8
FACILITY
 62
     1
 10
3360.171893248606
 20
683.46875175948435
 30
0.0
 11
3360.171893248606
 21
683.00000175948435
 31
0.0
  0
LINE
  5
318E
  8
FACILITY
 62
     1
 10
3360.171893248606
 20
683.00000175948435
 30
0.0
 11
3364.078143248606
 21
683.00000175948435
 31
0.0
  0
LINE
  5
318F
  8
FACILITY
 62
     1
 10
3364.078143248606
 20
683.00000175948435
 30
0.0
 11
3364.078143248606
 21
674.09375175948435
 31
0.0
  0
LINE
  5
3190
  8
FACILITY
 62
     1
 10
3364.078143248606
 20
674.09375175948435
 30
0.0
 11
3360.171893248606
 21
674.09375175948435
 31
0.0
  0
LINE
  5
3191
  8
FACILITY
 62
     1
 10
3360.171893248606
 20
674.09375175948435
 30
0.0
 11
3360.171893248606
 21
673.62500175948435
 31
0.0
  0
LINE
  5
3192
  8
FACILITY
 62
     1
 10
3360.171893248606
 20
673.62500175948435
 30
0.0
 11
3364.234393248606
 21
673.62500175948435
 31
0.0
  0
LINE
  5
3193
  8
FACILITY
 62
     1
 10
3210.4843932486042
 20
673.6250001993551
 30
0.0
 11
3214.5468932486042
 21
673.6250001993551
 31
0.0
  0
LINE
  5
3194
  8
FACILITY
 62
     1
 10
3214.5468932486042
 20
673.6250001993551
 30
0.0
 11
3214.5468932486042
 21
674.0937501993551
 31
0.0
  0
LINE
  5
3195
  8
FACILITY
 62
     1
 10
3214.5468932486042
 20
674.0937501993551
 30
0.0
 11
3210.6406432486042
 21
674.0937501993551
 31
0.0
  0
LINE
  5
3196
  8
FACILITY
 62
     1
 10
3210.6406432486042
 20
674.0937501993551
 30
0.0
 11
3210.6406432486042
 21
683.0000001993551
 31
0.0
  0
LINE
  5
3197
  8
FACILITY
 62
     1
 10
3210.6406432486042
 20
683.0000001993551
 30
0.0
 11
3214.5468932486042
 21
683.0000001993551
 31
0.0
  0
LINE
  5
3198
  8
FACILITY
 62
     1
 10
3214.5468932486042
 20
683.0000001993551
 30
0.0
 11
3214.5468932486042
 21
683.4687501993551
 31
0.0
  0
LINE
  5
3199
  8
FACILITY
 62
     1
 10
3214.5468932486042
 20
683.4687501993551
 30
0.0
 11
3206.4218932486051
 21
683.4687501993551
 31
0.0
  0
LINE
  5
319A
  8
FACILITY
 62
     1
 10
3206.4218932486051
 20
683.4687501993551
 30
0.0
 11
3206.4218932486051
 21
683.0000001993551
 31
0.0
  0
LINE
  5
319B
  8
FACILITY
 62
     1
 10
3206.4218932486051
 20
683.0000001993551
 30
0.0
 11
3210.3281432486051
 21
683.0000001993551
 31
0.0
  0
LINE
  5
319C
  8
FACILITY
 62
     1
 10
3210.3281432486051
 20
683.0000001993551
 30
0.0
 11
3210.3281432486051
 21
674.0937501993551
 31
0.0
  0
LINE
  5
319D
  8
FACILITY
 62
     1
 10
3210.3281432486051
 20
674.0937501993551
 30
0.0
 11
3206.4218932486051
 21
674.0937501993551
 31
0.0
  0
LINE
  5
319E
  8
FACILITY
 62
     1
 10
3206.4218932486051
 20
674.0937501993551
 30
0.0
 11
3206.4218932486051
 21
673.6250001993551
 31
0.0
  0
LINE
  5
319F
  8
FACILITY
 62
     1
 10
3206.4218932486051
 20
673.6250001993551
 30
0.0
 11
3210.4843932486042
 21
673.6250001993551
 31
0.0
  0
LINE
  5
31A0
  8
FACILITY
 62
     7
 10
3387.1093932063491
 20
675.50000175948117
 30
-10.0
 11
3495.1093932063491
 21
675.50000175948117
 31
-10.0
  0
LINE
  5
31A1
  8
FACILITY
 62
     7
 10
3495.1093932063491
 20
675.50000175948117
 30
-10.0
 11
3495.1093932063491
 21
677.50000175948128
 31
-10.0
  0
LINE
  5
31A2
  8
FACILITY
 62
     7
 10
3495.1093932063491
 20
677.50000175948128
 30
-10.0
 11
3387.1093932063491
 21
677.50000175948128
 31
-10.0
  0
LINE
  5
31A3
  8
FACILITY
 62
     7
 10
3387.1093932063491
 20
677.50000175948128
 30
-10.0
 11
3387.1093932063491
 21
675.50000175948117
 31
-10.0
  0
LINE
  5
31A4
  8
FACILITY
 62
     7
 10
3405.1093932486042
 20
664.00000175947855
 30
-10.0
 11
3477.1093931640899
 21
664.00000175947855
 31
-10.0
  0
LINE
  5
31A5
  8
FACILITY
 62
     7
 10
3477.1093931640899
 20
664.00000175947855
 30
-10.0
 11
3477.1093931640899
 21
745.50000394365645
 31
-10.0
  0
LINE
  5
31A6
  8
FACILITY
 62
     7
 10
3477.1093931640899
 20
745.50000394365645
 30
-10.0
 11
3405.1093932486042
 21
745.50000394365645
 31
-10.0
  0
LINE
  5
31A7
  8
FACILITY
 62
     7
 10
3405.1093932486042
 20
745.50000394365645
 30
-10.0
 11
3405.1093932486042
 21
664.00000175947855
 31
-10.0
  0
LINE
  5
31A8
  8
FACILITY
 62
     7
 10
3233.3593932063491
 20
675.50000051138068
 30
-10.0
 11
3341.3593932063491
 21
675.50000051138068
 31
-10.0
  0
LINE
  5
31A9
  8
FACILITY
 62
     7
 10
3341.3593932063491
 20
675.50000051138068
 30
-10.0
 11
3341.3593932063491
 21
677.50000051138079
 31
-10.0
  0
LINE
  5
31AA
  8
FACILITY
 62
     7
 10
3341.3593932063491
 20
677.50000051138079
 30
-10.0
 11
3233.3593932063491
 21
677.50000051138079
 31
-10.0
  0
LINE
  5
31AB
  8
FACILITY
 62
     7
 10
3233.3593932063491
 20
677.50000051138079
 30
-10.0
 11
3233.3593932063491
 21
675.50000051138068
 31
-10.0
  0
LINE
  5
31AC
  8
FACILITY
 62
     7
 10
3251.3593932486042
 20
664.00000051137806
 30
-10.0
 11
3323.3593931640912
 21
664.00000051137806
 31
-10.0
  0
LINE
  5
31AD
  8
FACILITY
 62
     7
 10
3323.3593931640912
 20
664.00000051137806
 30
-10.0
 11
3323.3593931640912
 21
745.50000269555585
 31
-10.0
  0
LINE
  5
31AE
  8
FACILITY
 62
     7
 10
3323.3593931640912
 20
745.50000269555585
 30
-10.0
 11
3251.3593932486042
 21
745.50000269555585
 31
-10.0
  0
LINE
  5
31AF
  8
FACILITY
 62
     7
 10
3251.3593932486042
 20
745.50000269555585
 30
-10.0
 11
3251.3593932486042
 21
664.00000051137806
 31
-10.0
  0
LINE
  5
31B0
  8
FACILITY
 62
     1
 10
3967.9843932486042
 20
673.62500019935658
 30
0.0
 11
3972.0468932486042
 21
673.62500019935658
 31
0.0
  0
LINE
  5
31B1
  8
FACILITY
 62
     1
 10
3972.0468932486042
 20
673.62500019935658
 30
0.0
 11
3972.0468932486042
 21
674.09375019935646
 31
0.0
  0
LINE
  5
31B2
  8
FACILITY
 62
     1
 10
3972.0468932486042
 20
674.09375019935646
 30
0.0
 11
3968.1406432486042
 21
674.09375019935646
 31
0.0
  0
LINE
  5
31B3
  8
FACILITY
 62
     1
 10
3968.1406432486042
 20
674.09375019935646
 30
0.0
 11
3968.1406432486042
 21
683.00000019935658
 31
0.0
  0
LINE
  5
31B4
  8
FACILITY
 62
     1
 10
3968.1406432486042
 20
683.00000019935658
 30
0.0
 11
3972.0468932486042
 21
683.00000019935658
 31
0.0
  0
LINE
  5
31B5
  8
FACILITY
 62
     1
 10
3972.0468932486042
 20
683.00000019935658
 30
0.0
 11
3972.0468932486042
 21
683.46875019935646
 31
0.0
  0
LINE
  5
31B6
  8
FACILITY
 62
     1
 10
3972.0468932486042
 20
683.46875019935646
 30
0.0
 11
3963.9218932486042
 21
683.46875019935646
 31
0.0
  0
LINE
  5
31B7
  8
FACILITY
 62
     1
 10
3963.9218932486042
 20
683.46875019935646
 30
0.0
 11
3963.9218932486042
 21
683.00000019935658
 31
0.0
  0
LINE
  5
31B8
  8
FACILITY
 62
     1
 10
3963.9218932486042
 20
683.00000019935658
 30
0.0
 11
3967.8281432486042
 21
683.00000019935658
 31
0.0
  0
LINE
  5
31B9
  8
FACILITY
 62
     1
 10
3967.8281432486042
 20
683.00000019935658
 30
0.0
 11
3967.8281432486042
 21
674.09375019935646
 31
0.0
  0
LINE
  5
31BA
  8
FACILITY
 62
     1
 10
3967.8281432486042
 20
674.09375019935646
 30
0.0
 11
3963.9218932486042
 21
674.09375019935646
 31
0.0
  0
LINE
  5
31BB
  8
FACILITY
 62
     1
 10
3963.9218932486042
 20
674.09375019935646
 30
0.0
 11
3963.9218932486042
 21
673.62500019935658
 31
0.0
  0
LINE
  5
31BC
  8
FACILITY
 62
     1
 10
3963.9218932486042
 20
673.62500019935658
 30
0.0
 11
3967.9843932486042
 21
673.62500019935658
 31
0.0
  0
LINE
  5
31BD
  8
FACILITY
 62
     1
 10
3667.9843932486042
 20
673.62500019935658
 30
0.0
 11
3672.0468932486051
 21
673.62500019935658
 31
0.0
  0
LINE
  5
31BE
  8
FACILITY
 62
     1
 10
3672.0468932486051
 20
673.62500019935658
 30
0.0
 11
3672.0468932486051
 21
674.09375019935646
 31
0.0
  0
LINE
  5
31BF
  8
FACILITY
 62
     1
 10
3672.0468932486051
 20
674.09375019935646
 30
0.0
 11
3668.1406432486051
 21
674.09375019935646
 31
0.0
  0
LINE
  5
31C0
  8
FACILITY
 62
     1
 10
3668.1406432486051
 20
674.09375019935646
 30
0.0
 11
3668.1406432486051
 21
683.00000019935658
 31
0.0
  0
LINE
  5
31C1
  8
FACILITY
 62
     1
 10
3668.1406432486051
 20
683.00000019935658
 30
0.0
 11
3672.0468932486051
 21
683.00000019935658
 31
0.0
  0
LINE
  5
31C2
  8
FACILITY
 62
     1
 10
3672.0468932486051
 20
683.00000019935658
 30
0.0
 11
3672.0468932486051
 21
683.46875019935646
 31
0.0
  0
LINE
  5
31C3
  8
FACILITY
 62
     1
 10
3672.0468932486051
 20
683.46875019935646
 30
0.0
 11
3663.9218932486042
 21
683.46875019935646
 31
0.0
  0
LINE
  5
31C4
  8
FACILITY
 62
     1
 10
3663.9218932486042
 20
683.46875019935646
 30
0.0
 11
3663.9218932486042
 21
683.00000019935658
 31
0.0
  0
LINE
  5
31C5
  8
FACILITY
 62
     1
 10
3663.9218932486042
 20
683.00000019935658
 30
0.0
 11
3667.8281432486042
 21
683.00000019935658
 31
0.0
  0
LINE
  5
31C6
  8
FACILITY
 62
     1
 10
3667.8281432486042
 20
683.00000019935658
 30
0.0
 11
3667.8281432486042
 21
674.09375019935646
 31
0.0
  0
LINE
  5
31C7
  8
FACILITY
 62
     1
 10
3667.8281432486042
 20
674.09375019935646
 30
0.0
 11
3663.9218932486042
 21
674.09375019935646
 31
0.0
  0
LINE
  5
31C8
  8
FACILITY
 62
     1
 10
3663.9218932486042
 20
674.09375019935646
 30
0.0
 11
3663.9218932486042
 21
673.62500019935658
 31
0.0
  0
LINE
  5
31C9
  8
FACILITY
 62
     1
 10
3663.9218932486042
 20
673.62500019935658
 30
0.0
 11
3667.9843932486042
 21
673.62500019935658
 31
0.0
  0
LINE
  5
31CA
  8
FACILITY
 62
     1
 10
3817.9843932486042
 20
673.62500019935658
 30
0.0
 11
3822.0468932486051
 21
673.62500019935658
 31
0.0
  0
LINE
  5
31CB
  8
FACILITY
 62
     1
 10
3822.0468932486051
 20
673.62500019935658
 30
0.0
 11
3822.0468932486051
 21
674.09375019935646
 31
0.0
  0
LINE
  5
31CC
  8
FACILITY
 62
     1
 10
3822.0468932486051
 20
674.09375019935646
 30
0.0
 11
3818.1406432486051
 21
674.09375019935646
 31
0.0
  0
LINE
  5
31CD
  8
FACILITY
 62
     1
 10
3818.1406432486051
 20
674.09375019935646
 30
0.0
 11
3818.1406432486051
 21
683.00000019935658
 31
0.0
  0
LINE
  5
31CE
  8
FACILITY
 62
     1
 10
3818.1406432486051
 20
683.00000019935658
 30
0.0
 11
3822.0468932486051
 21
683.00000019935658
 31
0.0
  0
LINE
  5
31CF
  8
FACILITY
 62
     1
 10
3822.0468932486051
 20
683.00000019935658
 30
0.0
 11
3822.0468932486051
 21
683.46875019935646
 31
0.0
  0
LINE
  5
31D0
  8
FACILITY
 62
     1
 10
3822.0468932486051
 20
683.46875019935646
 30
0.0
 11
3813.9218932486042
 21
683.46875019935646
 31
0.0
  0
LINE
  5
31D1
  8
FACILITY
 62
     1
 10
3813.9218932486042
 20
683.46875019935646
 30
0.0
 11
3813.9218932486042
 21
683.00000019935658
 31
0.0
  0
LINE
  5
31D2
  8
FACILITY
 62
     1
 10
3813.9218932486042
 20
683.00000019935658
 30
0.0
 11
3817.8281432486042
 21
683.00000019935658
 31
0.0
  0
LINE
  5
31D3
  8
FACILITY
 62
     1
 10
3817.8281432486042
 20
683.00000019935658
 30
0.0
 11
3817.8281432486042
 21
674.09375019935646
 31
0.0
  0
LINE
  5
31D4
  8
FACILITY
 62
     1
 10
3817.8281432486042
 20
674.09375019935646
 30
0.0
 11
3813.9218932486042
 21
674.09375019935646
 31
0.0
  0
LINE
  5
31D5
  8
FACILITY
 62
     1
 10
3813.9218932486042
 20
674.09375019935646
 30
0.0
 11
3813.9218932486042
 21
673.62500019935658
 31
0.0
  0
LINE
  5
31D6
  8
FACILITY
 62
     1
 10
3813.9218932486042
 20
673.62500019935658
 30
0.0
 11
3817.9843932486042
 21
673.62500019935658
 31
0.0
  0
LINE
  5
31D7
  8
FACILITY
 62
     1
 10
3517.9843932486042
 20
673.62500019935351
 30
0.0
 11
3522.0468932486051
 21
673.62500019935351
 31
0.0
  0
LINE
  5
31D8
  8
FACILITY
 62
     1
 10
3522.0468932486051
 20
673.62500019935351
 30
0.0
 11
3522.0468932486051
 21
674.09375019935351
 31
0.0
  0
LINE
  5
31D9
  8
FACILITY
 62
     1
 10
3522.0468932486051
 20
674.09375019935351
 30
0.0
 11
3518.1406432486051
 21
674.09375019935351
 31
0.0
  0
LINE
  5
31DA
  8
FACILITY
 62
     1
 10
3518.1406432486051
 20
674.09375019935351
 30
0.0
 11
3518.1406432486051
 21
683.00000019935351
 31
0.0
  0
LINE
  5
31DB
  8
FACILITY
 62
     1
 10
3518.1406432486051
 20
683.00000019935351
 30
0.0
 11
3522.0468932486051
 21
683.00000019935351
 31
0.0
  0
LINE
  5
31DC
  8
FACILITY
 62
     1
 10
3522.0468932486051
 20
683.00000019935351
 30
0.0
 11
3522.0468932486051
 21
683.46875019935351
 31
0.0
  0
LINE
  5
31DD
  8
FACILITY
 62
     1
 10
3522.0468932486051
 20
683.46875019935351
 30
0.0
 11
3513.9218932486042
 21
683.46875019935351
 31
0.0
  0
LINE
  5
31DE
  8
FACILITY
 62
     1
 10
3513.9218932486042
 20
683.46875019935351
 30
0.0
 11
3513.9218932486042
 21
683.00000019935351
 31
0.0
  0
LINE
  5
31DF
  8
FACILITY
 62
     1
 10
3513.9218932486042
 20
683.00000019935351
 30
0.0
 11
3517.8281432486042
 21
683.00000019935351
 31
0.0
  0
LINE
  5
31E0
  8
FACILITY
 62
     1
 10
3517.8281432486042
 20
683.00000019935351
 30
0.0
 11
3517.8281432486042
 21
674.09375019935351
 31
0.0
  0
LINE
  5
31E1
  8
FACILITY
 62
     1
 10
3517.8281432486042
 20
674.09375019935351
 30
0.0
 11
3513.9218932486042
 21
674.09375019935351
 31
0.0
  0
LINE
  5
31E2
  8
FACILITY
 62
     1
 10
3513.9218932486042
 20
674.09375019935351
 30
0.0
 11
3513.9218932486042
 21
673.62500019935351
 31
0.0
  0
LINE
  5
31E3
  8
FACILITY
 62
     1
 10
3513.9218932486042
 20
673.62500019935351
 30
0.0
 11
3517.9843932486042
 21
673.62500019935351
 31
0.0
  0
LINE
  5
31EF
  8
FACILITY
 62
     7
 10
3688.98439320635
 20
675.50000175948435
 30
-10.0
 11
3796.9843932063491
 21
675.50000175948435
 31
-10.0
  0
LINE
  5
31F0
  8
FACILITY
 62
     7
 10
3796.9843932063491
 20
675.50000175948435
 30
-10.0
 11
3796.9843932063491
 21
677.50000175948435
 31
-10.0
  0
LINE
  5
31F1
  8
FACILITY
 62
     7
 10
3796.9843932063491
 20
677.50000175948435
 30
-10.0
 11
3688.98439320635
 21
677.50000175948435
 31
-10.0
  0
LINE
  5
31F2
  8
FACILITY
 62
     7
 10
3688.98439320635
 20
677.50000175948435
 30
-10.0
 11
3688.98439320635
 21
675.50000175948435
 31
-10.0
  0
LINE
  5
31F3
  8
FACILITY
 62
     7
 10
3538.98439320635
 20
675.50000051138113
 30
-10.0
 11
3646.9843932063491
 21
675.50000051138113
 31
-10.0
  0
LINE
  5
31F4
  8
FACILITY
 62
     7
 10
3646.9843932063491
 20
675.50000051138113
 30
-10.0
 11
3646.9843932063491
 21
677.50000051138113
 31
-10.0
  0
LINE
  5
31F5
  8
FACILITY
 62
     7
 10
3646.9843932063491
 20
677.50000051138113
 30
-10.0
 11
3538.98439320635
 21
677.50000051138113
 31
-10.0
  0
LINE
  5
31F6
  8
FACILITY
 62
     7
 10
3538.98439320635
 20
677.50000051138113
 30
-10.0
 11
3538.98439320635
 21
675.50000051138113
 31
-10.0
  0
LINE
  5
31F7
  8
FACILITY
 62
     7
 10
3706.9843932486042
 20
664.00000175948151
 30
-10.0
 11
3778.9843931640899
 21
664.00000175948151
 31
-10.0
  0
LINE
  5
31F8
  8
FACILITY
 62
     7
 10
3778.9843931640899
 20
664.00000175948151
 30
-10.0
 11
3778.9843931640899
 21
745.50000394365952
 31
-10.0
  0
LINE
  5
31F9
  8
FACILITY
 62
     7
 10
3778.9843931640899
 20
745.50000394365952
 30
-10.0
 11
3706.9843932486042
 21
745.50000394365952
 31
-10.0
  0
LINE
  5
31FA
  8
FACILITY
 62
     7
 10
3706.9843932486042
 20
745.50000394365952
 30
-10.0
 11
3706.9843932486042
 21
664.00000175948151
 31
-10.0
  0
LINE
  5
31FB
  8
FACILITY
 62
     7
 10
3556.9843932486042
 20
664.00000051137829
 30
-10.0
 11
3628.9843931640912
 21
664.00000051137829
 31
-10.0
  0
LINE
  5
31FC
  8
FACILITY
 62
     7
 10
3628.9843931640912
 20
664.00000051137829
 30
-10.0
 11
3628.9843931640912
 21
745.5000026955563
 31
-10.0
  0
LINE
  5
31FD
  8
FACILITY
 62
     7
 10
3628.9843931640912
 20
745.5000026955563
 30
-10.0
 11
3556.9843932486042
 21
745.5000026955563
 31
-10.0
  0
LINE
  5
31FE
  8
FACILITY
 62
     7
 10
3556.9843932486042
 20
745.5000026955563
 30
-10.0
 11
3556.9843932486042
 21
664.00000051137829
 31
-10.0
  0
LINE
  5
3223
  8
FACILITY
 62
     7
 10
3838.98439320635
 20
675.50000051138181
 30
-10.0
 11
3946.9843932063491
 21
675.50000051138181
 31
-10.0
  0
LINE
  5
3224
  8
FACILITY
 62
     7
 10
3946.9843932063491
 20
675.50000051138181
 30
-10.0
 11
3946.9843932063491
 21
677.50000051138181
 31
-10.0
  0
LINE
  5
3225
  8
FACILITY
 62
     7
 10
3946.9843932063491
 20
677.50000051138181
 30
-10.0
 11
3838.98439320635
 21
677.50000051138181
 31
-10.0
  0
LINE
  5
3226
  8
FACILITY
 62
     7
 10
3838.98439320635
 20
677.50000051138181
 30
-10.0
 11
3838.98439320635
 21
675.50000051138181
 31
-10.0
  0
LINE
  5
3227
  8
FACILITY
 62
     7
 10
3856.9843932486042
 20
664.00000051137897
 30
-10.0
 11
3928.9843931640912
 21
664.00000051137897
 31
-10.0
  0
LINE
  5
3228
  8
FACILITY
 62
     7
 10
3928.9843931640912
 20
664.00000051137897
 30
-10.0
 11
3928.9843931640912
 21
745.50000269555699
 31
-10.0
  0
LINE
  5
3229
  8
FACILITY
 62
     7
 10
3928.9843931640912
 20
745.50000269555699
 30
-10.0
 11
3856.9843932486042
 21
745.50000269555699
 31
-10.0
  0
LINE
  5
322A
  8
FACILITY
 62
     7
 10
3856.9843932486042
 20
745.50000269555699
 30
-10.0
 11
3856.9843932486042
 21
664.00000051137897
 31
-10.0
  0
LINE
  5
322B
  8
FACILITY
 62
     1
 10
4867.9843932486046
 20
673.62500175525849
 30
0.0
 11
4872.0468932486037
 21
673.62500175525849
 31
0.0
  0
LINE
  5
322C
  8
FACILITY
 62
     1
 10
4872.0468932486037
 20
673.62500175525849
 30
0.0
 11
4872.0468932486037
 21
674.09375175525849
 31
0.0
  0
LINE
  5
322D
  8
FACILITY
 62
     1
 10
4872.0468932486037
 20
674.09375175525849
 30
0.0
 11
4868.1406432486037
 21
674.09375175525849
 31
0.0
  0
LINE
  5
322E
  8
FACILITY
 62
     1
 10
4868.1406432486037
 20
674.09375175525849
 30
0.0
 11
4868.1406432486037
 21
683.00000175525849
 31
0.0
  0
LINE
  5
322F
  8
FACILITY
 62
     1
 10
4868.1406432486037
 20
683.00000175525849
 30
0.0
 11
4872.0468932486037
 21
683.00000175525849
 31
0.0
  0
LINE
  5
3230
  8
FACILITY
 62
     1
 10
4872.0468932486037
 20
683.00000175525849
 30
0.0
 11
4872.0468932486037
 21
683.46875175525849
 31
0.0
  0
LINE
  5
3231
  8
FACILITY
 62
     1
 10
4872.0468932486037
 20
683.46875175525849
 30
0.0
 11
4863.9218932486046
 21
683.46875175525849
 31
0.0
  0
LINE
  5
3232
  8
FACILITY
 62
     1
 10
4863.9218932486046
 20
683.46875175525849
 30
0.0
 11
4863.9218932486046
 21
683.00000175525849
 31
0.0
  0
LINE
  5
3233
  8
FACILITY
 62
     1
 10
4863.9218932486046
 20
683.00000175525849
 30
0.0
 11
4867.8281432486046
 21
683.00000175525849
 31
0.0
  0
LINE
  5
3234
  8
FACILITY
 62
     1
 10
4867.8281432486046
 20
683.00000175525849
 30
0.0
 11
4867.8281432486046
 21
674.09375175525849
 31
0.0
  0
LINE
  5
3235
  8
FACILITY
 62
     1
 10
4867.8281432486046
 20
674.09375175525849
 30
0.0
 11
4863.9218932486046
 21
674.09375175525849
 31
0.0
  0
LINE
  5
3236
  8
FACILITY
 62
     1
 10
4863.9218932486046
 20
674.09375175525849
 30
0.0
 11
4863.9218932486046
 21
673.62500175525849
 31
0.0
  0
LINE
  5
3237
  8
FACILITY
 62
     1
 10
4863.9218932486046
 20
673.62500175525849
 30
0.0
 11
4867.9843932486046
 21
673.62500175525849
 31
0.0
  0
LINE
  5
3238
  8
FACILITY
 62
     1
 10
4717.9843932486037
 20
673.62500175525849
 30
0.0
 11
4722.0468932486046
 21
673.62500175525849
 31
0.0
  0
LINE
  5
3239
  8
FACILITY
 62
     1
 10
4722.0468932486046
 20
673.62500175525849
 30
0.0
 11
4722.0468932486046
 21
674.09375175525849
 31
0.0
  0
LINE
  5
323A
  8
FACILITY
 62
     1
 10
4722.0468932486046
 20
674.09375175525849
 30
0.0
 11
4718.1406432486046
 21
674.09375175525849
 31
0.0
  0
LINE
  5
323B
  8
FACILITY
 62
     1
 10
4718.1406432486046
 20
674.09375175525849
 30
0.0
 11
4718.1406432486046
 21
683.00000175525849
 31
0.0
  0
LINE
  5
323C
  8
FACILITY
 62
     1
 10
4718.1406432486046
 20
683.00000175525849
 30
0.0
 11
4722.0468932486046
 21
683.00000175525849
 31
0.0
  0
LINE
  5
323D
  8
FACILITY
 62
     1
 10
4722.0468932486046
 20
683.00000175525849
 30
0.0
 11
4722.0468932486046
 21
683.46875175525849
 31
0.0
  0
LINE
  5
323E
  8
FACILITY
 62
     1
 10
4722.0468932486046
 20
683.46875175525849
 30
0.0
 11
4713.9218932486037
 21
683.46875175525849
 31
0.0
  0
LINE
  5
323F
  8
FACILITY
 62
     1
 10
4713.9218932486037
 20
683.46875175525849
 30
0.0
 11
4713.9218932486037
 21
683.00000175525849
 31
0.0
  0
LINE
  5
3240
  8
FACILITY
 62
     1
 10
4713.9218932486037
 20
683.00000175525849
 30
0.0
 11
4717.8281432486037
 21
683.00000175525849
 31
0.0
  0
LINE
  5
3241
  8
FACILITY
 62
     1
 10
4717.8281432486037
 20
683.00000175525849
 30
0.0
 11
4717.8281432486037
 21
674.09375175525849
 31
0.0
  0
LINE
  5
3242
  8
FACILITY
 62
     1
 10
4717.8281432486037
 20
674.09375175525849
 30
0.0
 11
4713.9218932486037
 21
674.09375175525849
 31
0.0
  0
LINE
  5
3243
  8
FACILITY
 62
     1
 10
4713.9218932486037
 20
674.09375175525849
 30
0.0
 11
4713.9218932486037
 21
673.62500175525849
 31
0.0
  0
LINE
  5
3244
  8
FACILITY
 62
     1
 10
4713.9218932486037
 20
673.62500175525849
 30
0.0
 11
4717.9843932486037
 21
673.62500175525849
 31
0.0
  0
LINE
  5
3245
  8
FACILITY
 62
     7
 10
4738.9843932063504
 20
675.50000206728453
 30
-10.0
 11
4846.9843932063504
 21
675.50000206728453
 31
-10.0
  0
LINE
  5
3246
  8
FACILITY
 62
     7
 10
4846.9843932063504
 20
675.50000206728453
 30
-10.0
 11
4846.9843932063504
 21
677.50000206728453
 31
-10.0
  0
LINE
  5
3247
  8
FACILITY
 62
     7
 10
4846.9843932063504
 20
677.50000206728453
 30
-10.0
 11
4738.9843932063504
 21
677.50000206728453
 31
-10.0
  0
LINE
  5
3248
  8
FACILITY
 62
     7
 10
4738.9843932063504
 20
677.50000206728453
 30
-10.0
 11
4738.9843932063504
 21
675.50000206728453
 31
-10.0
  0
LINE
  5
3249
  8
FACILITY
 62
     7
 10
4756.9843932486037
 20
664.00000206728168
 30
-10.0
 11
4828.9843931640908
 21
664.00000206728168
 31
-10.0
  0
LINE
  5
324A
  8
FACILITY
 62
     7
 10
4828.9843931640908
 20
664.00000206728168
 30
-10.0
 11
4828.9843931640908
 21
745.5000042514597
 31
-10.0
  0
LINE
  5
324B
  8
FACILITY
 62
     7
 10
4828.9843931640908
 20
745.5000042514597
 30
-10.0
 11
4756.9843932486037
 21
745.5000042514597
 31
-10.0
  0
LINE
  5
324C
  8
FACILITY
 62
     7
 10
4756.9843932486037
 20
745.5000042514597
 30
-10.0
 11
4756.9843932486037
 21
664.00000206728168
 31
-10.0
  0
LINE
  5
3274
  8
FACILITY
 62
     7
 10
497.48439324860448
 20
1648.30067962971
 30
0.0
 11
502.683713818245
 21
1653.5000001993501
 31
0.0
  0
LINE
  5
3275
  8
FACILITY
 62
     7
 10
502.10833502070398
 20
1645.500000199351
 30
0.0
 11
510.10833502070369
 21
1653.500000199351
 31
0.0
  0
LINE
  5
3276
  8
FACILITY
 62
     7
 10
509.53295622316273
 20
1645.500000199351
 30
0.0
 11
517.53295622316273
 21
1653.500000199351
 31
0.0
  0
LINE
  5
3277
  8
FACILITY
 62
     7
 10
516.95757742562125
 20
1645.500000199351
 30
0.0
 11
524.95757742562125
 21
1653.5000001993501
 31
0.0
  0
LINE
  5
3278
  8
FACILITY
 62
     7
 10
524.38219862808035
 20
1645.500000199351
 30
0.0
 11
532.38219862808012
 21
1653.5000001993501
 31
0.0
  0
LINE
  5
3279
  8
FACILITY
 62
     7
 10
531.8068198305391
 20
1645.500000199351
 30
0.0
 11
539.80681983053876
 21
1653.500000199351
 31
0.0
  0
LINE
  5
327A
  8
FACILITY
 62
     7
 10
539.23144103299774
 20
1645.500000199351
 30
0.0
 11
547.23144103299774
 21
1653.500000199351
 31
0.0
  0
LINE
  5
327B
  8
FACILITY
 62
     7
 10
546.6560622354566
 20
1645.500000199351
 30
0.0
 11
554.65606223545626
 21
1653.5000001993501
 31
0.0
  0
LINE
  5
327C
  8
FACILITY
 62
     7
 10
554.08068343791535
 20
1645.500000199351
 30
0.0
 11
562.08068343791513
 21
1653.5000001993501
 31
0.0
  0
LINE
  5
327D
  8
FACILITY
 62
     7
 10
561.50530464037399
 20
1645.500000199351
 30
0.0
 11
569.50530464037365
 21
1653.500000199351
 31
0.0
  0
LINE
  5
327E
  8
FACILITY
 62
     7
 10
568.92992584283286
 20
1645.500000199351
 30
0.0
 11
576.92992584283274
 21
1653.500000199351
 31
0.0
  0
LINE
  5
327F
  8
FACILITY
 62
     7
 10
576.35454704529161
 20
1645.500000199351
 30
0.0
 11
584.35454704529127
 21
1653.5000001993501
 31
0.0
  0
LINE
  5
3280
  8
FACILITY
 62
     7
 10
583.77916824775036
 20
1645.500000199351
 30
0.0
 11
591.77916824775014
 21
1653.5000001993501
 31
0.0
  0
LINE
  5
3281
  8
FACILITY
 62
     7
 10
591.20378945020889
 20
1645.500000199351
 30
0.0
 11
599.20378945020877
 21
1653.500000199351
 31
0.0
  0
LINE
  5
3282
  8
FACILITY
 62
     7
 10
598.62841065266798
 20
1645.500000199351
 30
0.0
 11
606.62841065266775
 21
1653.500000199351
 31
0.0
  0
LINE
  5
3283
  8
FACILITY
 62
     7
 10
606.05303185512662
 20
1645.500000199351
 30
0.0
 11
614.05303185512662
 21
1653.500000199351
 31
0.0
  0
LINE
  5
3284
  8
FACILITY
 62
     7
 10
613.47765305758526
 20
1645.500000199351
 30
0.0
 11
621.47765305758526
 21
1653.500000199351
 31
0.0
  0
LINE
  5
3285
  8
FACILITY
 62
     7
 10
620.9022742600439
 20
1645.500000199351
 30
0.0
 11
628.9022742600439
 21
1653.500000199351
 31
0.0
  0
LINE
  5
3286
  8
FACILITY
 62
     7
 10
628.32689546250299
 20
1645.500000199351
 30
0.0
 11
636.32689546250265
 21
1653.500000199351
 31
0.0
  0
LINE
  5
3287
  8
FACILITY
 62
     7
 10
635.75151666496163
 20
1645.500000199351
 30
0.0
 11
643.75151666496163
 21
1653.500000199351
 31
0.0
  0
LINE
  5
3288
  8
FACILITY
 62
     7
 10
641.48439324860442
 20
1643.8082555805349
 30
0.0
 11
649.48439324860465
 21
1651.8082555805349
 31
0.0
  0
LINE
  5
3289
  8
FACILITY
 62
     7
 10
641.48439324860453
 20
1636.3836343780761
 30
0.0
 11
649.48439324860453
 21
1644.3836343780761
 31
0.0
  0
LINE
  5
328A
  8
FACILITY
 62
     7
 10
641.48439324860442
 20
1628.9590131756181
 30
0.0
 11
649.48439324860465
 21
1636.959013175617
 31
0.0
  0
LINE
  5
328B
  8
FACILITY
 62
     7
 10
643.45000147479664
 20
1623.500000199351
 30
0.0
 11
649.48439324860442
 21
1629.534391973159
 31
0.0
  0
LINE
  5
328C
  8
FACILITY
 62
     7
 10
500.21552731122739
 20
1645.500000199351
 30
0.0
 11
497.48439324860459
 21
1648.2311342619739
 31
0.0
  0
LINE
  5
328D
  8
FACILITY
 62
     7
 10
507.64014851368609
 20
1645.500000199351
 30
0.0
 11
499.64014851368609
 21
1653.5000001993501
 31
0.0
  0
LINE
  5
328E
  8
FACILITY
 62
     7
 10
515.06476971614484
 20
1645.500000199351
 30
0.0
 11
507.06476971614489
 21
1653.5000001993501
 31
0.0
  0
LINE
  5
328F
  8
FACILITY
 62
     7
 10
522.48939091860348
 20
1645.500000199351
 30
0.0
 11
514.48939091860359
 21
1653.500000199351
 31
0.0
  0
LINE
  5
3290
  8
FACILITY
 62
     7
 10
529.91401212106246
 20
1645.500000199351
 30
0.0
 11
521.91401212106246
 21
1653.500000199351
 31
0.0
  0
LINE
  5
3291
  8
FACILITY
 62
     7
 10
537.33863332352109
 20
1645.500000199351
 30
0.0
 11
529.33863332352109
 21
1653.500000199351
 31
0.0
  0
LINE
  5
3292
  8
FACILITY
 62
     7
 10
544.76325452597985
 20
1645.500000199351
 30
0.0
 11
536.76325452597985
 21
1653.500000199351
 31
0.0
  0
LINE
  5
3293
  8
FACILITY
 62
     7
 10
552.18787572843837
 20
1645.500000199351
 30
0.0
 11
544.1878757284386
 21
1653.500000199351
 31
0.0
  0
LINE
  5
3294
  8
FACILITY
 62
     7
 10
559.61249693089735
 20
1645.500000199351
 30
0.0
 11
551.61249693089735
 21
1653.500000199351
 31
0.0
  0
LINE
  5
3295
  8
FACILITY
 62
     7
 10
567.03711813335599
 20
1645.500000199351
 30
0.0
 11
559.03711813335622
 21
1653.500000199351
 31
0.0
  0
LINE
  5
3296
  8
FACILITY
 62
     7
 10
574.46173933581485
 20
1645.500000199351
 30
0.0
 11
566.46173933581485
 21
1653.500000199351
 31
0.0
  0
LINE
  5
3297
  8
FACILITY
 62
     7
 10
581.88636053827349
 20
1645.500000199351
 30
0.0
 11
573.88636053827349
 21
1653.500000199351
 31
0.0
  0
LINE
  5
3298
  8
FACILITY
 62
     7
 10
589.31098174073225
 20
1645.500000199351
 30
0.0
 11
581.31098174073213
 21
1653.500000199351
 31
0.0
  0
LINE
  5
3299
  8
FACILITY
 62
     7
 10
596.735602943191
 20
1645.500000199351
 30
0.0
 11
588.73560294319111
 21
1653.500000199351
 31
0.0
  0
LINE
  5
329A
  8
FACILITY
 62
     7
 10
604.16022414564975
 20
1645.500000199351
 30
0.0
 11
596.16022414564975
 21
1653.500000199351
 31
0.0
  0
LINE
  5
329B
  8
FACILITY
 62
     7
 10
611.5848453481085
 20
1645.500000199351
 30
0.0
 11
603.5848453481085
 21
1653.500000199351
 31
0.0
  0
LINE
  5
329C
  8
FACILITY
 62
     7
 10
619.00946655056725
 20
1645.500000199351
 30
0.0
 11
611.00946655056714
 21
1653.500000199351
 31
0.0
  0
LINE
  5
329D
  8
FACILITY
 62
     7
 10
648.43408775302623
 20
1623.500000199351
 30
0.0
 11
641.48439324860453
 21
1630.4496947037719
 31
0.0
  0
LINE
  5
329E
  8
FACILITY
 62
     7
 10
626.43408775302623
 20
1645.500000199351
 30
0.0
 11
618.43408775302612
 21
1653.500000199351
 31
0.0
  0
LINE
  5
329F
  8
FACILITY
 62
     7
 10
649.48439324860442
 20
1629.874315906231
 30
0.0
 11
641.48439324860465
 21
1637.874315906231
 31
0.0
  0
LINE
  5
32A0
  8
FACILITY
 62
     7
 10
633.85870895548487
 20
1645.500000199351
 30
0.0
 11
625.85870895548464
 21
1653.500000199351
 31
0.0
  0
LINE
  5
32A1
  8
FACILITY
 62
     7
 10
649.48439324860442
 20
1637.2989371086901
 30
0.0
 11
641.48439324860442
 21
1645.2989371086901
 31
0.0
  0
LINE
  5
32A2
  8
FACILITY
 62
     7
 10
641.28333015794351
 20
1645.500000199351
 30
0.0
 11
633.28333015794351
 21
1653.500000199351
 31
0.0
  0
LINE
  5
32A3
  8
FACILITY
 62
     7
 10
649.48439324860442
 20
1644.723558311149
 30
0.0
 11
640.70795136040215
 21
1653.500000199351
 31
0.0
  0
LINE
  5
32A4
  8
FACILITY
 62
     7
 10
649.48439324860465
 20
1652.1481795136069
 30
0.0
 11
648.13257256286101
 21
1653.500000199351
 31
0.0
  0
LINE
  5
3315
  8
FACILITY
 62
     7
 10
6232.9843932486056
 20
1285.816231284258
 30
0.0
 11
6271.1681594326783
 21
1323.999997468333
 31
0.0
  0
LINE
  5
3316
  8
FACILITY
 62
     7
 10
6271.1681594326783
 20
1323.999997468333
 30
0.0
 11
6232.9843932486056
 21
1362.183763652406
 31
0.0
  0
LINE
  5
3317
  8
FACILITY
 62
     7
 10
6232.9843932486056
 20
1362.183763652406
 30
0.0
 11
6194.8006270645301
 21
1323.999997468333
 31
0.0
  0
LINE
  5
3318
  8
FACILITY
 62
     7
 10
6194.8006270645301
 20
1323.999997468333
 30
0.0
 11
6232.9843932486056
 21
1285.816231284258
 31
0.0
  0
LINE
  5
3319
  8
FACILITY
 62
     7
 10
6232.9843932486056
 20
1819.8162312842589
 30
0.0
 11
6271.1681594326783
 21
1857.999997468333
 31
0.0
  0
LINE
  5
331A
  8
FACILITY
 62
     7
 10
6271.1681594326783
 20
1857.999997468333
 30
0.0
 11
6232.9843932486056
 21
1896.183763652406
 31
0.0
  0
LINE
  5
331B
  8
FACILITY
 62
     7
 10
6232.9843932486056
 20
1896.183763652406
 30
0.0
 11
6194.8006270645301
 21
1857.999997468333
 31
0.0
  0
LINE
  5
331C
  8
FACILITY
 62
     7
 10
6194.8006270645301
 20
1857.999997468333
 30
0.0
 11
6232.9843932486056
 21
1819.8162312842589
 31
0.0
  0
LINE
  5
331D
  8
FACILITY
 62
     7
 10
6232.9843932486056
 20
2353.8162312842578
 30
0.0
 11
6271.1681594326783
 21
2391.9999974683328
 31
0.0
  0
LINE
  5
331E
  8
FACILITY
 62
     7
 10
6271.1681594326783
 20
2391.9999974683328
 30
0.0
 11
6232.9843932486056
 21
2430.183763652406
 31
0.0
  0
LINE
  5
331F
  8
FACILITY
 62
     7
 10
6232.9843932486056
 20
2430.183763652406
 30
0.0
 11
6194.8006270645301
 21
2391.9999974683328
 31
0.0
  0
LINE
  5
3320
  8
FACILITY
 62
     7
 10
6194.8006270645301
 20
2391.9999974683328
 30
0.0
 11
6232.9843932486056
 21
2353.8162312842578
 31
0.0
  0
LINE
  5
3321
  8
FACILITY
 62
     7
 10
6232.9843932486056
 20
2887.8162312842578
 30
0.0
 11
6271.1681594326783
 21
2925.9999974683319
 31
0.0
  0
LINE
  5
3322
  8
FACILITY
 62
     7
 10
6271.1681594326783
 20
2925.9999974683319
 30
0.0
 11
6232.9843932486056
 21
2964.1837636524051
 31
0.0
  0
LINE
  5
3323
  8
FACILITY
 62
     7
 10
6232.9843932486056
 20
2964.1837636524051
 30
0.0
 11
6194.8006270645301
 21
2925.9999974683319
 31
0.0
  0
LINE
  5
3324
  8
FACILITY
 62
     7
 10
6194.8006270645301
 20
2925.9999974683319
 30
0.0
 11
6232.9843932486056
 21
2887.8162312842578
 31
0.0
  0
LINE
  5
3325
  8
FACILITY
 62
     7
 10
6232.9843932486056
 20
3421.8162312842592
 30
0.0
 11
6271.1681594326783
 21
3459.9999974683319
 31
0.0
  0
LINE
  5
3326
  8
FACILITY
 62
     7
 10
6271.1681594326783
 20
3459.9999974683319
 30
0.0
 11
6232.9843932486056
 21
3498.183763652406
 31
0.0
  0
LINE
  5
3327
  8
FACILITY
 62
     7
 10
6232.9843932486056
 20
3498.183763652406
 30
0.0
 11
6194.8006270645301
 21
3459.9999974683319
 31
0.0
  0
LINE
  5
3328
  8
FACILITY
 62
     7
 10
6194.8006270645301
 20
3459.9999974683319
 30
0.0
 11
6232.9843932486056
 21
3421.8162312842592
 31
0.0
  0
LINE
  5
3329
  8
FACILITY
 62
     7
 10
2902.9843932486051
 20
3421.8162312842592
 30
0.0
 11
2941.1681594326778
 21
3459.9999974683319
 31
0.0
  0
LINE
  5
332A
  8
FACILITY
 62
     7
 10
2941.1681594326778
 20
3459.9999974683319
 30
0.0
 11
2902.9843932486051
 21
3498.183763652406
 31
0.0
  0
LINE
  5
332B
  8
FACILITY
 62
     7
 10
2902.9843932486051
 20
3498.183763652406
 30
0.0
 11
2864.800627064531
 21
3459.9999974683319
 31
0.0
  0
LINE
  5
332C
  8
FACILITY
 62
     7
 10
2864.800627064531
 20
3459.9999974683319
 30
0.0
 11
2902.9843932486051
 21
3421.8162312842592
 31
0.0
  0
LINE
  5
332D
  8
FACILITY
 62
     7
 10
2902.9843932486051
 20
2887.8162312842578
 30
0.0
 11
2941.1681594326778
 21
2925.9999974683319
 31
0.0
  0
LINE
  5
332E
  8
FACILITY
 62
     7
 10
2941.1681594326778
 20
2925.9999974683319
 30
0.0
 11
2902.9843932486051
 21
2964.1837636524051
 31
0.0
  0
LINE
  5
332F
  8
FACILITY
 62
     7
 10
2902.9843932486051
 20
2964.1837636524051
 30
0.0
 11
2864.800627064531
 21
2925.9999974683319
 31
0.0
  0
LINE
  5
3330
  8
FACILITY
 62
     7
 10
2864.800627064531
 20
2925.9999974683319
 30
0.0
 11
2902.9843932486051
 21
2887.8162312842578
 31
0.0
  0
LINE
  5
3331
  8
FACILITY
 62
     7
 10
2902.9843932486051
 20
2353.8162312842578
 30
0.0
 11
2941.1681594326778
 21
2391.9999974683328
 31
0.0
  0
LINE
  5
3332
  8
FACILITY
 62
     7
 10
2941.1681594326778
 20
2391.9999974683328
 30
0.0
 11
2902.9843932486051
 21
2430.183763652406
 31
0.0
  0
LINE
  5
3333
  8
FACILITY
 62
     7
 10
2902.9843932486051
 20
2430.183763652406
 30
0.0
 11
2864.800627064531
 21
2391.9999974683328
 31
0.0
  0
LINE
  5
3334
  8
FACILITY
 62
     7
 10
2864.800627064531
 20
2391.9999974683328
 30
0.0
 11
2902.9843932486051
 21
2353.8162312842578
 31
0.0
  0
LINE
  5
3335
  8
FACILITY
 62
     7
 10
2902.9843932486051
 20
1819.8162312842589
 30
0.0
 11
2941.1681594326778
 21
1857.999997468333
 31
0.0
  0
LINE
  5
3336
  8
FACILITY
 62
     7
 10
2941.1681594326778
 20
1857.999997468333
 30
0.0
 11
2902.9843932486051
 21
1896.183763652406
 31
0.0
  0
LINE
  5
3337
  8
FACILITY
 62
     7
 10
2902.9843932486051
 20
1896.183763652406
 30
0.0
 11
2864.800627064531
 21
1857.999997468333
 31
0.0
  0
LINE
  5
3338
  8
FACILITY
 62
     7
 10
2864.800627064531
 20
1857.999997468333
 30
0.0
 11
2902.9843932486051
 21
1819.8162312842589
 31
0.0
  0
LINE
  5
3339
  8
FACILITY
 62
     7
 10
2902.9843932486051
 20
1285.816231284258
 30
0.0
 11
2941.1681594326778
 21
1323.999997468333
 31
0.0
  0
LINE
  5
333A
  8
FACILITY
 62
     7
 10
2941.1681594326778
 20
1323.999997468333
 30
0.0
 11
2902.9843932486051
 21
1362.183763652406
 31
0.0
  0
LINE
  5
333B
  8
FACILITY
 62
     7
 10
2902.9843932486051
 20
1362.183763652406
 30
0.0
 11
2864.800627064531
 21
1323.999997468333
 31
0.0
  0
LINE
  5
333C
  8
FACILITY
 62
     7
 10
2864.800627064531
 20
1323.999997468333
 30
0.0
 11
2902.9843932486051
 21
1285.816231284258
 31
0.0
  0
LINE
  5
333D
  8
FACILITY
 62
     7
 10
6907.9843932486037
 20
2904.786794032736
 30
0.0
 11
6929.197596684201
 21
2925.9999974683319
 31
0.0
  0
LINE
  5
333E
  8
FACILITY
 62
     7
 10
6929.197596684201
 20
2925.9999974683319
 30
0.0
 11
6907.9843932486037
 21
2947.2132009039292
 31
0.0
  0
LINE
  5
333F
  8
FACILITY
 62
     7
 10
6907.9843932486037
 20
2947.2132009039292
 30
0.0
 11
6886.7711898130083
 21
2925.9999974683319
 31
0.0
  0
LINE
  5
3340
  8
FACILITY
 62
     7
 10
6886.7711898130083
 20
2925.9999974683319
 30
0.0
 11
6907.9843932486037
 21
2904.786794032736
 31
0.0
  0
LINE
  5
3341
  8
FACILITY
 62
     7
 10
7567.9843932486046
 20
2370.786794032736
 30
0.0
 11
7589.197596684201
 21
2391.9999974683328
 31
0.0
  0
LINE
  5
3342
  8
FACILITY
 62
     7
 10
7589.197596684201
 20
2391.9999974683328
 30
0.0
 11
7567.9843932486046
 21
2413.2132009039292
 31
0.0
  0
LINE
  5
3343
  8
FACILITY
 62
     7
 10
7567.9843932486046
 20
2413.2132009039292
 30
0.0
 11
7546.7711898130092
 21
2391.9999974683328
 31
0.0
  0
LINE
  5
3344
  8
FACILITY
 62
     7
 10
7546.7711898130092
 20
2391.9999974683328
 30
0.0
 11
7567.9843932486046
 21
2370.786794032736
 31
0.0
  0
LINE
  5
3345
  8
FACILITY
 62
     7
 10
6907.9843932486037
 20
2370.786794032736
 30
0.0
 11
6929.197596684201
 21
2391.9999974683328
 31
0.0
  0
LINE
  5
3346
  8
FACILITY
 62
     7
 10
6929.197596684201
 20
2391.9999974683328
 30
0.0
 11
6907.9843932486037
 21
2413.2132009039292
 31
0.0
  0
LINE
  5
3347
  8
FACILITY
 62
     7
 10
6907.9843932486037
 20
2413.2132009039292
 30
0.0
 11
6886.7711898130083
 21
2391.9999974683328
 31
0.0
  0
LINE
  5
3348
  8
FACILITY
 62
     7
 10
6886.7711898130083
 20
2391.9999974683328
 30
0.0
 11
6907.9843932486037
 21
2370.786794032736
 31
0.0
  0
LINE
  5
3349
  8
FACILITY
 62
     7
 10
6907.9843932486037
 20
1836.786794032736
 30
0.0
 11
6929.197596684201
 21
1857.999997468333
 31
0.0
  0
LINE
  5
334A
  8
FACILITY
 62
     7
 10
6929.197596684201
 20
1857.999997468333
 30
0.0
 11
6907.9843932486037
 21
1879.213200903929
 31
0.0
  0
LINE
  5
334B
  8
FACILITY
 62
     7
 10
6907.9843932486037
 20
1879.213200903929
 30
0.0
 11
6886.7711898130083
 21
1857.999997468333
 31
0.0
  0
LINE
  5
334C
  8
FACILITY
 62
     7
 10
6886.7711898130083
 20
1857.999997468333
 30
0.0
 11
6907.9843932486037
 21
1836.786794032736
 31
0.0
  0
LINE
  5
334D
  8
FACILITY
 62
     7
 10
7567.9843932486046
 20
1836.786794032736
 30
0.0
 11
7589.197596684201
 21
1857.999997468333
 31
0.0
  0
LINE
  5
334E
  8
FACILITY
 62
     7
 10
7589.197596684201
 20
1857.999997468333
 30
0.0
 11
7567.9843932486046
 21
1879.213200903929
 31
0.0
  0
LINE
  5
334F
  8
FACILITY
 62
     7
 10
7567.9843932486046
 20
1879.213200903929
 30
0.0
 11
7546.7711898130092
 21
1857.999997468333
 31
0.0
  0
LINE
  5
3350
  8
FACILITY
 62
     7
 10
7546.7711898130092
 20
1857.999997468333
 30
0.0
 11
7567.9843932486046
 21
1836.786794032736
 31
0.0
  0
LINE
  5
3351
  8
FACILITY
 62
     7
 10
8227.9843932486037
 20
1836.786794032736
 30
0.0
 11
8249.1975966842001
 21
1857.999997468333
 31
0.0
  0
LINE
  5
3352
  8
FACILITY
 62
     7
 10
8249.1975966842001
 20
1857.999997468333
 30
0.0
 11
8227.9843932486037
 21
1879.213200903929
 31
0.0
  0
LINE
  5
3353
  8
FACILITY
 62
     7
 10
8227.9843932486037
 20
1879.213200903929
 30
0.0
 11
8206.7711898130074
 21
1857.999997468333
 31
0.0
  0
LINE
  5
3354
  8
FACILITY
 62
     7
 10
8206.7711898130074
 20
1857.999997468333
 30
0.0
 11
8227.9843932486037
 21
1836.786794032736
 31
0.0
  0
LINE
  5
3355
  8
FACILITY
 62
     7
 10
8227.9843932486037
 20
1302.786794032736
 30
0.0
 11
8249.1975966842001
 21
1323.9999974683319
 31
0.0
  0
LINE
  5
3356
  8
FACILITY
 62
     7
 10
8249.1975966842001
 20
1323.9999974683319
 30
0.0
 11
8227.9843932486037
 21
1345.213200903929
 31
0.0
  0
LINE
  5
3357
  8
FACILITY
 62
     7
 10
8227.9843932486037
 20
1345.213200903929
 30
0.0
 11
8206.7711898130074
 21
1323.9999974683319
 31
0.0
  0
LINE
  5
3358
  8
FACILITY
 62
     7
 10
8206.7711898130074
 20
1323.9999974683319
 30
0.0
 11
8227.9843932486037
 21
1302.786794032736
 31
0.0
  0
LINE
  5
3359
  8
FACILITY
 62
     7
 10
7567.9843932486046
 20
1302.786794032736
 30
0.0
 11
7589.197596684201
 21
1323.9999974683319
 31
0.0
  0
LINE
  5
335A
  8
FACILITY
 62
     7
 10
7589.197596684201
 20
1323.9999974683319
 30
0.0
 11
7567.9843932486046
 21
1345.213200903929
 31
0.0
  0
LINE
  5
335B
  8
FACILITY
 62
     7
 10
7567.9843932486046
 20
1345.213200903929
 30
0.0
 11
7546.7711898130092
 21
1323.9999974683319
 31
0.0
  0
LINE
  5
335C
  8
FACILITY
 62
     7
 10
7546.7711898130092
 20
1323.9999974683319
 30
0.0
 11
7567.9843932486046
 21
1302.786794032736
 31
0.0
  0
LINE
  5
335D
  8
FACILITY
 62
     7
 10
6907.9843932486037
 20
1302.786794032736
 30
0.0
 11
6929.197596684201
 21
1323.9999974683319
 31
0.0
  0
LINE
  5
335E
  8
FACILITY
 62
     7
 10
6929.197596684201
 20
1323.9999974683319
 30
0.0
 11
6907.9843932486037
 21
1345.213200903929
 31
0.0
  0
LINE
  5
335F
  8
FACILITY
 62
     7
 10
6907.9843932486037
 20
1345.213200903929
 30
0.0
 11
6886.7711898130083
 21
1323.9999974683319
 31
0.0
  0
LINE
  5
3360
  8
FACILITY
 62
     7
 10
6886.7711898130083
 20
1323.9999974683319
 30
0.0
 11
6907.9843932486037
 21
1302.786794032736
 31
0.0
  0
LINE
  5
3361
  8
FACILITY
 62
     7
 10
5557.9843932486046
 20
1302.786794032736
 30
0.0
 11
5579.197596684201
 21
1323.9999974683319
 31
0.0
  0
LINE
  5
3362
  8
FACILITY
 62
     7
 10
5579.197596684201
 20
1323.9999974683319
 30
0.0
 11
5557.9843932486046
 21
1345.213200903929
 31
0.0
  0
LINE
  5
3363
  8
FACILITY
 62
     7
 10
5557.9843932486046
 20
1345.213200903929
 30
0.0
 11
5536.7711898130083
 21
1323.9999974683319
 31
0.0
  0
LINE
  5
3364
  8
FACILITY
 62
     7
 10
5536.7711898130083
 20
1323.9999974683319
 30
0.0
 11
5557.9843932486046
 21
1302.786794032736
 31
0.0
  0
LINE
  5
3365
  8
FACILITY
 62
     7
 10
4897.9843932486046
 20
1302.786794032736
 30
0.0
 11
4919.197596684201
 21
1323.9999974683319
 31
0.0
  0
LINE
  5
3366
  8
FACILITY
 62
     7
 10
4919.197596684201
 20
1323.9999974683319
 30
0.0
 11
4897.9843932486046
 21
1345.213200903929
 31
0.0
  0
LINE
  5
3367
  8
FACILITY
 62
     7
 10
4897.9843932486046
 20
1345.213200903929
 30
0.0
 11
4876.7711898130083
 21
1323.9999974683319
 31
0.0
  0
LINE
  5
3368
  8
FACILITY
 62
     7
 10
4876.7711898130083
 20
1323.9999974683319
 30
0.0
 11
4897.9843932486046
 21
1302.786794032736
 31
0.0
  0
LINE
  5
3369
  8
FACILITY
 62
     7
 10
4237.9843932486046
 20
1302.786794032736
 30
0.0
 11
4259.197596684201
 21
1323.9999974683319
 31
0.0
  0
LINE
  5
336A
  8
FACILITY
 62
     7
 10
4259.197596684201
 20
1323.9999974683319
 30
0.0
 11
4237.9843932486046
 21
1345.213200903929
 31
0.0
  0
LINE
  5
336B
  8
FACILITY
 62
     7
 10
4237.9843932486046
 20
1345.213200903929
 30
0.0
 11
4216.7711898130083
 21
1323.9999974683319
 31
0.0
  0
LINE
  5
336C
  8
FACILITY
 62
     7
 10
4216.7711898130083
 20
1323.9999974683319
 30
0.0
 11
4237.9843932486046
 21
1302.786794032736
 31
0.0
  0
LINE
  5
336D
  8
FACILITY
 62
     7
 10
3577.9843932486042
 20
1302.786794032736
 30
0.0
 11
3599.197596684201
 21
1323.9999974683319
 31
0.0
  0
LINE
  5
336E
  8
FACILITY
 62
     7
 10
3599.197596684201
 20
1323.9999974683319
 30
0.0
 11
3577.9843932486042
 21
1345.213200903929
 31
0.0
  0
LINE
  5
336F
  8
FACILITY
 62
     7
 10
3577.9843932486042
 20
1345.213200903929
 30
0.0
 11
3556.7711898130078
 21
1323.9999974683319
 31
0.0
  0
LINE
  5
3370
  8
FACILITY
 62
     7
 10
3556.7711898130078
 20
1323.9999974683319
 30
0.0
 11
3577.9843932486042
 21
1302.786794032736
 31
0.0
  0
LINE
  5
3371
  8
FACILITY
 62
     7
 10
3577.9843932486042
 20
1836.786794032736
 30
0.0
 11
3599.197596684201
 21
1857.999997468333
 31
0.0
  0
LINE
  5
3372
  8
FACILITY
 62
     7
 10
3599.197596684201
 20
1857.999997468333
 30
0.0
 11
3577.9843932486042
 21
1879.213200903929
 31
0.0
  0
LINE
  5
3373
  8
FACILITY
 62
     7
 10
3577.9843932486042
 20
1879.213200903929
 30
0.0
 11
3556.7711898130078
 21
1857.999997468333
 31
0.0
  0
LINE
  5
3374
  8
FACILITY
 62
     7
 10
3556.7711898130078
 20
1857.999997468333
 30
0.0
 11
3577.9843932486042
 21
1836.786794032736
 31
0.0
  0
LINE
  5
3375
  8
FACILITY
 62
     7
 10
4237.9843932486046
 20
1836.786794032736
 30
0.0
 11
4259.197596684201
 21
1857.999997468333
 31
0.0
  0
LINE
  5
3376
  8
FACILITY
 62
     7
 10
4259.197596684201
 20
1857.999997468333
 30
0.0
 11
4237.9843932486046
 21
1879.213200903929
 31
0.0
  0
LINE
  5
3377
  8
FACILITY
 62
     7
 10
4237.9843932486046
 20
1879.213200903929
 30
0.0
 11
4216.7711898130083
 21
1857.999997468333
 31
0.0
  0
LINE
  5
3378
  8
FACILITY
 62
     7
 10
4216.7711898130083
 20
1857.999997468333
 30
0.0
 11
4237.9843932486046
 21
1836.786794032736
 31
0.0
  0
LINE
  5
3379
  8
FACILITY
 62
     7
 10
4897.9843932486046
 20
1836.786794032736
 30
0.0
 11
4919.197596684201
 21
1857.999997468333
 31
0.0
  0
LINE
  5
337A
  8
FACILITY
 62
     7
 10
4919.197596684201
 20
1857.999997468333
 30
0.0
 11
4897.9843932486046
 21
1879.213200903929
 31
0.0
  0
LINE
  5
337B
  8
FACILITY
 62
     7
 10
4897.9843932486046
 20
1879.213200903929
 30
0.0
 11
4876.7711898130083
 21
1857.999997468333
 31
0.0
  0
LINE
  5
337C
  8
FACILITY
 62
     7
 10
4876.7711898130083
 20
1857.999997468333
 30
0.0
 11
4897.9843932486046
 21
1836.786794032736
 31
0.0
  0
LINE
  5
337D
  8
FACILITY
 62
     7
 10
5557.9843932486046
 20
1836.786794032736
 30
0.0
 11
5579.197596684201
 21
1857.999997468333
 31
0.0
  0
LINE
  5
337E
  8
FACILITY
 62
     7
 10
5579.197596684201
 20
1857.999997468333
 30
0.0
 11
5557.9843932486046
 21
1879.213200903929
 31
0.0
  0
LINE
  5
337F
  8
FACILITY
 62
     7
 10
5557.9843932486046
 20
1879.213200903929
 30
0.0
 11
5536.7711898130083
 21
1857.999997468333
 31
0.0
  0
LINE
  5
3380
  8
FACILITY
 62
     7
 10
5536.7711898130083
 20
1857.999997468333
 30
0.0
 11
5557.9843932486046
 21
1836.786794032736
 31
0.0
  0
LINE
  5
3381
  8
FACILITY
 62
     7
 10
5557.9843932486046
 20
2370.786794032736
 30
0.0
 11
5579.197596684201
 21
2391.9999974683328
 31
0.0
  0
LINE
  5
3382
  8
FACILITY
 62
     7
 10
5579.197596684201
 20
2391.9999974683328
 30
0.0
 11
5557.9843932486046
 21
2413.2132009039292
 31
0.0
  0
LINE
  5
3383
  8
FACILITY
 62
     7
 10
5557.9843932486046
 20
2413.2132009039292
 30
0.0
 11
5536.7711898130083
 21
2391.9999974683328
 31
0.0
  0
LINE
  5
3384
  8
FACILITY
 62
     7
 10
5536.7711898130083
 20
2391.9999974683328
 30
0.0
 11
5557.9843932486046
 21
2370.786794032736
 31
0.0
  0
LINE
  5
3385
  8
FACILITY
 62
     7
 10
4897.9843932486046
 20
2370.786794032736
 30
0.0
 11
4919.197596684201
 21
2391.9999974683328
 31
0.0
  0
LINE
  5
3386
  8
FACILITY
 62
     7
 10
4919.197596684201
 20
2391.9999974683328
 30
0.0
 11
4897.9843932486046
 21
2413.2132009039292
 31
0.0
  0
LINE
  5
3387
  8
FACILITY
 62
     7
 10
4897.9843932486046
 20
2413.2132009039292
 30
0.0
 11
4876.7711898130083
 21
2391.9999974683328
 31
0.0
  0
LINE
  5
3388
  8
FACILITY
 62
     7
 10
4876.7711898130083
 20
2391.9999974683328
 30
0.0
 11
4897.9843932486046
 21
2370.786794032736
 31
0.0
  0
LINE
  5
3389
  8
FACILITY
 62
     7
 10
4237.9843932486046
 20
2370.786794032736
 30
0.0
 11
4259.197596684201
 21
2391.9999974683328
 31
0.0
  0
LINE
  5
338A
  8
FACILITY
 62
     7
 10
4259.197596684201
 20
2391.9999974683328
 30
0.0
 11
4237.9843932486046
 21
2413.2132009039292
 31
0.0
  0
LINE
  5
338B
  8
FACILITY
 62
     7
 10
4237.9843932486046
 20
2413.2132009039292
 30
0.0
 11
4216.7711898130083
 21
2391.9999974683328
 31
0.0
  0
LINE
  5
338C
  8
FACILITY
 62
     7
 10
4216.7711898130083
 20
2391.9999974683328
 30
0.0
 11
4237.9843932486046
 21
2370.786794032736
 31
0.0
  0
LINE
  5
338D
  8
FACILITY
 62
     7
 10
3577.9843932486042
 20
2370.786794032736
 30
0.0
 11
3599.197596684201
 21
2391.9999974683328
 31
0.0
  0
LINE
  5
338E
  8
FACILITY
 62
     7
 10
3599.197596684201
 20
2391.9999974683328
 30
0.0
 11
3577.9843932486042
 21
2413.2132009039292
 31
0.0
  0
LINE
  5
338F
  8
FACILITY
 62
     7
 10
3577.9843932486042
 20
2413.2132009039292
 30
0.0
 11
3556.7711898130078
 21
2391.9999974683328
 31
0.0
  0
LINE
  5
3390
  8
FACILITY
 62
     7
 10
3556.7711898130078
 20
2391.9999974683328
 30
0.0
 11
3577.9843932486042
 21
2370.786794032736
 31
0.0
  0
LINE
  5
3391
  8
FACILITY
 62
     7
 10
3577.9843932486042
 20
2904.786794032736
 30
0.0
 11
3599.197596684201
 21
2925.9999974683319
 31
0.0
  0
LINE
  5
3392
  8
FACILITY
 62
     7
 10
3599.197596684201
 20
2925.9999974683319
 30
0.0
 11
3577.9843932486042
 21
2947.2132009039292
 31
0.0
  0
LINE
  5
3393
  8
FACILITY
 62
     7
 10
3577.9843932486042
 20
2947.2132009039292
 30
0.0
 11
3556.7711898130078
 21
2925.9999974683319
 31
0.0
  0
LINE
  5
3394
  8
FACILITY
 62
     7
 10
3556.7711898130078
 20
2925.9999974683319
 30
0.0
 11
3577.9843932486042
 21
2904.786794032736
 31
0.0
  0
LINE
  5
3395
  8
FACILITY
 62
     7
 10
4237.9843932486046
 20
2904.786794032736
 30
0.0
 11
4259.197596684201
 21
2925.9999974683319
 31
0.0
  0
LINE
  5
3396
  8
FACILITY
 62
     7
 10
4259.197596684201
 20
2925.9999974683319
 30
0.0
 11
4237.9843932486046
 21
2947.2132009039292
 31
0.0
  0
LINE
  5
3397
  8
FACILITY
 62
     7
 10
4237.9843932486046
 20
2947.2132009039292
 30
0.0
 11
4216.7711898130083
 21
2925.9999974683319
 31
0.0
  0
LINE
  5
3398
  8
FACILITY
 62
     7
 10
4216.7711898130083
 20
2925.9999974683319
 30
0.0
 11
4237.9843932486046
 21
2904.786794032736
 31
0.0
  0
LINE
  5
3399
  8
FACILITY
 62
     7
 10
4897.9843932486046
 20
2904.786794032736
 30
0.0
 11
4919.197596684201
 21
2925.9999974683319
 31
0.0
  0
LINE
  5
339A
  8
FACILITY
 62
     7
 10
4919.197596684201
 20
2925.9999974683319
 30
0.0
 11
4897.9843932486046
 21
2947.2132009039292
 31
0.0
  0
LINE
  5
339B
  8
FACILITY
 62
     7
 10
4897.9843932486046
 20
2947.2132009039292
 30
0.0
 11
4876.7711898130083
 21
2925.9999974683319
 31
0.0
  0
LINE
  5
339C
  8
FACILITY
 62
     7
 10
4876.7711898130083
 20
2925.9999974683319
 30
0.0
 11
4897.9843932486046
 21
2904.786794032736
 31
0.0
  0
LINE
  5
339D
  8
FACILITY
 62
     7
 10
5557.9843932486046
 20
2904.786794032736
 30
0.0
 11
5579.197596684201
 21
2925.9999974683319
 31
0.0
  0
LINE
  5
339E
  8
FACILITY
 62
     7
 10
5579.197596684201
 20
2925.9999974683319
 30
0.0
 11
5557.9843932486046
 21
2947.2132009039292
 31
0.0
  0
LINE
  5
339F
  8
FACILITY
 62
     7
 10
5557.9843932486046
 20
2947.2132009039292
 30
0.0
 11
5536.7711898130083
 21
2925.9999974683319
 31
0.0
  0
LINE
  5
33A0
  8
FACILITY
 62
     7
 10
5536.7711898130083
 20
2925.9999974683319
 30
0.0
 11
5557.9843932486046
 21
2904.786794032736
 31
0.0
  0
LINE
  5
33A1
  8
FACILITY
 62
     7
 10
5557.9843932486046
 20
3438.786794032736
 30
0.0
 11
5579.197596684201
 21
3459.9999974683319
 31
0.0
  0
LINE
  5
33A2
  8
FACILITY
 62
     7
 10
5579.197596684201
 20
3459.9999974683319
 30
0.0
 11
5557.9843932486046
 21
3481.2132009039278
 31
0.0
  0
LINE
  5
33A3
  8
FACILITY
 62
     7
 10
5557.9843932486046
 20
3481.2132009039278
 30
0.0
 11
5536.7711898130083
 21
3459.9999974683319
 31
0.0
  0
LINE
  5
33A4
  8
FACILITY
 62
     7
 10
5536.7711898130083
 20
3459.9999974683319
 30
0.0
 11
5557.9843932486046
 21
3438.786794032736
 31
0.0
  0
LINE
  5
33A5
  8
FACILITY
 62
     7
 10
4897.9843932486046
 20
3438.786794032736
 30
0.0
 11
4919.197596684201
 21
3459.9999974683319
 31
0.0
  0
LINE
  5
33A6
  8
FACILITY
 62
     7
 10
4919.197596684201
 20
3459.9999974683319
 30
0.0
 11
4897.9843932486046
 21
3481.2132009039278
 31
0.0
  0
LINE
  5
33A7
  8
FACILITY
 62
     7
 10
4897.9843932486046
 20
3481.2132009039278
 30
0.0
 11
4876.7711898130083
 21
3459.9999974683319
 31
0.0
  0
LINE
  5
33A8
  8
FACILITY
 62
     7
 10
4876.7711898130083
 20
3459.9999974683319
 30
0.0
 11
4897.9843932486046
 21
3438.786794032736
 31
0.0
  0
LINE
  5
33A9
  8
FACILITY
 62
     7
 10
4237.9843932486046
 20
3438.786794032736
 30
0.0
 11
4259.197596684201
 21
3459.9999974683319
 31
0.0
  0
LINE
  5
33AA
  8
FACILITY
 62
     7
 10
4259.197596684201
 20
3459.9999974683319
 30
0.0
 11
4237.9843932486046
 21
3481.2132009039278
 31
0.0
  0
LINE
  5
33AB
  8
FACILITY
 62
     7
 10
4237.9843932486046
 20
3481.2132009039278
 30
0.0
 11
4216.7711898130083
 21
3459.9999974683319
 31
0.0
  0
LINE
  5
33AC
  8
FACILITY
 62
     7
 10
4216.7711898130083
 20
3459.9999974683319
 30
0.0
 11
4237.9843932486046
 21
3438.786794032736
 31
0.0
  0
LINE
  5
33AD
  8
FACILITY
 62
     7
 10
3577.9843932486042
 20
3438.786794032736
 30
0.0
 11
3599.197596684201
 21
3459.9999974683319
 31
0.0
  0
LINE
  5
33AE
  8
FACILITY
 62
     7
 10
3599.197596684201
 20
3459.9999974683319
 30
0.0
 11
3577.9843932486042
 21
3481.2132009039278
 31
0.0
  0
LINE
  5
33AF
  8
FACILITY
 62
     7
 10
3577.9843932486042
 20
3481.2132009039278
 30
0.0
 11
3556.7711898130078
 21
3459.9999974683319
 31
0.0
  0
LINE
  5
33B0
  8
FACILITY
 62
     7
 10
3556.7711898130078
 20
3459.9999974683319
 30
0.0
 11
3577.9843932486042
 21
3438.786794032736
 31
0.0
  0
LINE
  5
33B1
  8
FACILITY
 62
     7
 10
2227.9843932486042
 20
2370.786794032736
 30
0.0
 11
2249.1975966842001
 21
2391.9999974683328
 31
0.0
  0
LINE
  5
33B2
  8
FACILITY
 62
     7
 10
2249.1975966842001
 20
2391.9999974683328
 30
0.0
 11
2227.9843932486042
 21
2413.2132009039292
 31
0.0
  0
LINE
  5
33B3
  8
FACILITY
 62
     7
 10
2227.9843932486042
 20
2413.2132009039292
 30
0.0
 11
2206.7711898130078
 21
2391.9999974683328
 31
0.0
  0
LINE
  5
33B4
  8
FACILITY
 62
     7
 10
2206.7711898130078
 20
2391.9999974683328
 30
0.0
 11
2227.9843932486042
 21
2370.786794032736
 31
0.0
  0
LINE
  5
33B5
  8
FACILITY
 62
     7
 10
2227.9843932486042
 20
1836.786794032736
 30
0.0
 11
2249.1975966842001
 21
1857.999997468333
 31
0.0
  0
LINE
  5
33B6
  8
FACILITY
 62
     7
 10
2249.1975966842001
 20
1857.999997468333
 30
0.0
 11
2227.9843932486042
 21
1879.213200903929
 31
0.0
  0
LINE
  5
33B7
  8
FACILITY
 62
     7
 10
2227.9843932486042
 20
1879.213200903929
 30
0.0
 11
2206.7711898130078
 21
1857.999997468333
 31
0.0
  0
LINE
  5
33B8
  8
FACILITY
 62
     7
 10
2206.7711898130078
 20
1857.999997468333
 30
0.0
 11
2227.9843932486042
 21
1836.786794032736
 31
0.0
  0
LINE
  5
33B9
  8
FACILITY
 62
     7
 10
2227.9843932486042
 20
1302.786794032736
 30
0.0
 11
2249.1975966842001
 21
1323.9999974683319
 31
0.0
  0
LINE
  5
33BA
  8
FACILITY
 62
     7
 10
2249.1975966842001
 20
1323.9999974683319
 30
0.0
 11
2227.9843932486042
 21
1345.213200903929
 31
0.0
  0
LINE
  5
33BB
  8
FACILITY
 62
     7
 10
2227.9843932486042
 20
1345.213200903929
 30
0.0
 11
2206.7711898130078
 21
1323.9999974683319
 31
0.0
  0
LINE
  5
33BC
  8
FACILITY
 62
     7
 10
2206.7711898130078
 20
1323.9999974683319
 30
0.0
 11
2227.9843932486042
 21
1302.786794032736
 31
0.0
  0
LINE
  5
33BD
  8
FACILITY
 62
     7
 10
1567.984393248604
 20
1302.786794032736
 30
0.0
 11
1589.197596684201
 21
1323.9999974683319
 31
0.0
  0
LINE
  5
33BE
  8
FACILITY
 62
     7
 10
1589.197596684201
 20
1323.9999974683319
 30
0.0
 11
1567.984393248604
 21
1345.213200903929
 31
0.0
  0
LINE
  5
33BF
  8
FACILITY
 62
     7
 10
1567.984393248604
 20
1345.213200903929
 30
0.0
 11
1546.771189813008
 21
1323.9999974683319
 31
0.0
  0
LINE
  5
33C0
  8
FACILITY
 62
     7
 10
1546.771189813008
 20
1323.9999974683319
 30
0.0
 11
1567.984393248604
 21
1302.786794032736
 31
0.0
  0
LINE
  5
33C1
  8
FACILITY
 62
     7
 10
1567.984393248604
 20
1836.786794032736
 30
0.0
 11
1589.197596684201
 21
1857.999997468333
 31
0.0
  0
LINE
  5
33C2
  8
FACILITY
 62
     7
 10
1589.197596684201
 20
1857.999997468333
 30
0.0
 11
1567.984393248604
 21
1879.213200903929
 31
0.0
  0
LINE
  5
33C3
  8
FACILITY
 62
     7
 10
1567.984393248604
 20
1879.213200903929
 30
0.0
 11
1546.771189813008
 21
1857.999997468333
 31
0.0
  0
LINE
  5
33C4
  8
FACILITY
 62
     7
 10
1546.771189813008
 20
1857.999997468333
 30
0.0
 11
1567.984393248604
 21
1836.786794032736
 31
0.0
  0
LINE
  5
33C5
  8
FACILITY
 62
     7
 10
907.98439324860465
 20
1302.786794032736
 30
0.0
 11
929.19759668420113
 21
1323.9999974683319
 31
0.0
  0
LINE
  5
33C6
  8
FACILITY
 62
     7
 10
929.19759668420113
 20
1323.9999974683319
 30
0.0
 11
907.98439324860465
 21
1345.213200903929
 31
0.0
  0
LINE
  5
33C7
  8
FACILITY
 62
     7
 10
907.98439324860465
 20
1345.213200903929
 30
0.0
 11
886.77118981300816
 21
1323.9999974683319
 31
0.0
  0
LINE
  5
33C8
  8
FACILITY
 62
     7
 10
886.77118981300816
 20
1323.9999974683319
 30
0.0
 11
907.98439324860465
 21
1302.786794032736
 31
0.0
  0
LINE
  5
3406
  8
FACILITY
 62
     7
 10
497.48439324860368
 20
1311.9999974683319
 30
0.0
 11
506.48439324860368
 21
1311.9999974683319
 31
0.0
  0
LINE
  5
3407
  8
FACILITY
 62
     7
 10
506.48439324860368
 20
1311.9999974683319
 30
0.0
 11
506.48439324860368
 21
1335.9999974683319
 31
0.0
  0
LINE
  5
3408
  8
FACILITY
 62
     7
 10
506.48439324860368
 20
1335.9999974683319
 30
0.0
 11
497.48439324860368
 21
1335.9999974683319
 31
0.0
  0
LINE
  5
3409
  8
FACILITY
 62
     7
 10
497.48439324860368
 20
1335.9999974683319
 30
0.0
 11
497.48439324860368
 21
1311.9999974683319
 31
0.0
  0
LINE
  5
3432
  8
FACILITY
 62
     7
 10
8638.4843932486037
 20
1335.9999974683319
 30
0.0
 11
8629.4843932486037
 21
1335.9999974683319
 31
0.0
  0
LINE
  5
3433
  8
FACILITY
 62
     7
 10
8629.4843932486037
 20
1335.9999974683319
 30
0.0
 11
8629.4843932486037
 21
1311.9999974683319
 31
0.0
  0
LINE
  5
3434
  8
FACILITY
 62
     7
 10
8629.4843932486037
 20
1311.9999974683319
 30
0.0
 11
8638.4843932486037
 21
1311.9999974683319
 31
0.0
  0
LINE
  5
3435
  8
FACILITY
 62
     7
 10
8638.4843932486037
 20
1311.9999974683319
 30
0.0
 11
8638.4843932486037
 21
1335.9999974683319
 31
0.0
  0
LINE
  5
3462
  8
FACILITY
 62
     7
 10
643.10939324860635
 20
1583.500000199351
 30
0.0
 11
643.10939324860635
 21
1585.5000001993469
 31
0.0
  0
LINE
  5
3463
  8
FACILITY
 62
     7
 10
643.10939324860635
 20
1585.5000001993469
 30
0.0
 11
647.85939324860635
 21
1585.5000001993469
 31
0.0
  0
LINE
  5
3464
  8
FACILITY
 62
     7
 10
647.85939324860635
 20
1585.5000001993469
 30
0.0
 11
647.85939324860999
 21
1583.500000199351
 31
0.0
  0
LINE
  5
3465
  8
FACILITY
 62
     7
 10
647.85939324860999
 20
1583.500000199351
 30
0.0
 11
643.10939324860635
 21
1583.500000199351
 31
0.0
  0
LINE
  5
3466
  8
FACILITY
 62
     7
 10
643.10939324860283
 20
1623.500000199351
 30
0.0
 11
643.10939324860283
 21
1621.500000199351
 31
0.0
  0
LINE
  5
3467
  8
FACILITY
 62
     7
 10
643.10939324860283
 20
1621.500000199351
 30
0.0
 11
647.85939324860635
 21
1621.500000199351
 31
0.0
  0
LINE
  5
3468
  8
FACILITY
 62
     7
 10
647.85939324860635
 20
1621.500000199351
 30
0.0
 11
647.85939324860635
 21
1623.500000199351
 31
0.0
  0
LINE
  5
3469
  8
FACILITY
 62
     7
 10
647.85939324860635
 20
1623.500000199351
 30
0.0
 11
643.10939324860283
 21
1623.500000199351
 31
0.0
  0
LINE
  5
346A
  8
FACILITY
 62
     7
 10
645.48439324860283
 20
1621.500000199351
 30
0.0
 11
645.48439324860283
 21
1619.750000199351
 31
0.0
  0
LINE
  5
346B
  8
FACILITY
 62
     7
 10
645.48439324860283
 20
1619.750000199351
 30
0.0
 11
609.48439324860635
 21
1619.7500001993469
 31
0.0
  0
LINE
  5
346C
  8
FACILITY
 62
     7
 10
609.48439324860635
 20
1619.7500001993469
 30
0.0
 11
609.48439324860635
 21
1621.5000001993469
 31
0.0
  0
LINE
  5
346D
  8
FACILITY
 62
     7
 10
609.48439324860635
 20
1621.5000001993469
 30
0.0
 11
645.48439324860283
 21
1621.500000199351
 31
0.0
  0
LINE
  5
3484
  8
FACILITY
  6
CONTINUOUS
 62
     7
 10
497.4843932486055
 20
1379.500000199351
 30
0.0
 11
649.48439324860374
 21
1379.500000199351
 31
0.0
  0
LINE
  5
3485
  8
FACILITY
  6
CONTINUOUS
 62
     7
 10
649.48439324860374
 20
1379.500000199351
 30
0.0
 11
649.48439324860465
 21
1583.500000199351
 31
0.0
  0
LINE
  5
3486
  8
FACILITY
  6
CONTINUOUS
 62
     7
 10
649.48439324860465
 20
1583.500000199351
 30
0.0
 11
641.48439324860465
 21
1583.500000199351
 31
0.0
  0
LINE
  5
3487
  8
FACILITY
  6
CONTINUOUS
 62
     7
 10
641.48439324860465
 20
1583.500000199351
 30
0.0
 11
641.48439324860374
 21
1387.500000199351
 31
0.0
  0
LINE
  5
3488
  8
FACILITY
  6
CONTINUOUS
 62
     7
 10
641.48439324860374
 20
1387.500000199351
 30
0.0
 11
497.48439324860459
 21
1387.500000199351
 31
0.0
  0
LINE
  5
3489
  8
FACILITY
  6
CONTINUOUS
 62
     7
 10
497.48439324860459
 20
1387.500000199351
 30
0.0
 11
497.4843932486055
 21
1379.500000199351
 31
0.0
  0
LINE
  5
348A
  8
FACILITY
 62
     7
 10
641.48439324860374
 20
1583.083090155279
 30
0.0
 11
641.90130329267549
 21
1583.500000199351
 31
0.0
  0
LINE
  5
348B
  8
FACILITY
 62
     7
 10
641.48439324860419
 20
1575.6584689528211
 30
0.0
 11
649.32592449513459
 21
1583.500000199351
 31
0.0
  0
LINE
  5
348C
  8
FACILITY
 62
     7
 10
641.48439324860419
 20
1568.2338477503611
 30
0.0
 11
649.48439324860408
 21
1576.2338477503611
 31
0.0
  0
LINE
  5
348D
  8
FACILITY
 62
     7
 10
641.48439324860419
 20
1560.809226547902
 30
0.0
 11
649.48439324860465
 21
1568.8092265479031
 31
0.0
  0
LINE
  5
348E
  8
FACILITY
 62
     7
 10
641.48439324860419
 20
1553.384605345444
 30
0.0
 11
649.48439324860408
 21
1561.384605345444
 31
0.0
  0
LINE
  5
348F
  8
FACILITY
 62
     7
 10
641.48439324860374
 20
1545.9599841429849
 30
0.0
 11
649.48439324860374
 21
1553.9599841429849
 31
0.0
  0
LINE
  5
3490
  8
FACILITY
 62
     7
 10
641.48439324860419
 20
1538.535362940527
 30
0.0
 11
649.48439324860408
 21
1546.535362940527
 31
0.0
  0
LINE
  5
3491
  8
FACILITY
 62
     7
 10
497.4843932486055
 20
1387.110741738069
 30
0.0
 11
497.87365170988687
 21
1387.5000001993501
 31
0.0
  0
LINE
  5
3492
  8
FACILITY
 62
     7
 10
641.48439324860419
 20
1531.1107417380681
 30
0.0
 11
649.48439324860408
 21
1539.1107417380681
 31
0.0
  0
LINE
  5
3493
  8
FACILITY
 62
     7
 10
497.4843932486055
 20
1379.6861205356099
 30
0.0
 11
505.29827291234591
 21
1387.5000001993501
 31
0.0
  0
LINE
  5
3494
  8
FACILITY
 62
     7
 10
641.48439324860419
 20
1523.686120535609
 30
0.0
 11
649.48439324860465
 21
1531.686120535609
 31
0.0
  0
LINE
  5
3495
  8
FACILITY
 62
     7
 10
504.722894114805
 20
1379.5000001993501
 30
0.0
 11
512.72289411480494
 21
1387.5000001993501
 31
0.0
  0
LINE
  5
3496
  8
FACILITY
 62
     7
 10
641.4843932486051
 20
1516.2614993331499
 30
0.0
 11
649.4843932486051
 21
1524.2614993331499
 31
0.0
  0
LINE
  5
3497
  8
FACILITY
 62
     7
 10
512.14751531726267
 20
1379.500000199351
 30
0.0
 11
520.14751531726267
 21
1387.500000199351
 31
0.0
  0
LINE
  5
3498
  8
FACILITY
 62
     7
 10
641.48439324860465
 20
1508.8368781306931
 30
0.0
 11
649.48439324860374
 21
1516.836878130692
 31
0.0
  0
LINE
  5
3499
  8
FACILITY
 62
     7
 10
519.57213651972143
 20
1379.5000001993501
 30
0.0
 11
527.57213651972188
 21
1387.500000199351
 31
0.0
  0
LINE
  5
349A
  8
FACILITY
 62
     7
 10
641.48439324860419
 20
1501.4122569282331
 30
0.0
 11
649.48439324860408
 21
1509.4122569282331
 31
0.0
  0
LINE
  5
349B
  8
FACILITY
 62
     7
 10
526.99675772218097
 20
1379.500000199351
 30
0.0
 11
534.99675772217995
 21
1387.5000001993501
 31
0.0
  0
LINE
  5
349C
  8
FACILITY
 62
     7
 10
641.48439324860419
 20
1493.987635725774
 30
0.0
 11
649.48439324860408
 21
1501.987635725774
 31
0.0
  0
LINE
  5
349D
  8
FACILITY
 62
     7
 10
534.42137892463961
 20
1379.5000001993501
 30
0.0
 11
542.42137892463961
 21
1387.5000001993501
 31
0.0
  0
LINE
  5
349E
  8
FACILITY
 62
     7
 10
641.48439324860419
 20
1486.5630145233149
 30
0.0
 11
649.48439324860408
 21
1494.5630145233149
 31
0.0
  0
LINE
  5
349F
  8
FACILITY
 62
     7
 10
541.8460001270987
 20
1379.5000001993501
 30
0.0
 11
549.8460001270987
 21
1387.5000001993501
 31
0.0
  0
LINE
  5
34A0
  8
FACILITY
 62
     7
 10
641.48439324860374
 20
1479.1383933208549
 30
0.0
 11
649.48439324860374
 21
1487.1383933208549
 31
0.0
  0
LINE
  5
34A1
  8
FACILITY
 62
     7
 10
549.27062132955677
 20
1379.500000199351
 30
0.0
 11
557.27062132955643
 21
1387.500000199351
 31
0.0
  0
LINE
  5
34A2
  8
FACILITY
 62
     7
 10
641.48439324860419
 20
1471.7137721183981
 30
0.0
 11
649.48439324860317
 21
1479.7137721183981
 31
0.0
  0
LINE
  5
34A3
  8
FACILITY
 62
     7
 10
556.69524253201598
 20
1379.500000199351
 30
0.0
 11
564.69524253201553
 21
1387.500000199351
 31
0.0
  0
LINE
  5
34A4
  8
FACILITY
 62
     7
 10
641.48439324860374
 20
1464.289150915939
 30
0.0
 11
649.48439324860408
 21
1472.2891509159399
 31
0.0
  0
LINE
  5
34A5
  8
FACILITY
 62
     7
 10
564.11986373447462
 20
1379.500000199351
 30
0.0
 11
572.11986373447405
 21
1387.5000001993501
 31
0.0
  0
LINE
  5
34A6
  8
FACILITY
 62
     7
 10
641.48439324860374
 20
1456.8645297134799
 30
0.0
 11
649.48439324860408
 21
1464.8645297134799
 31
0.0
  0
LINE
  5
34A7
  8
FACILITY
 62
     7
 10
571.54448493693315
 20
1379.500000199351
 30
0.0
 11
579.54448493693315
 21
1387.5000001993501
 31
0.0
  0
LINE
  5
34A8
  8
FACILITY
 62
     7
 10
641.48439324860374
 20
1449.439908511021
 30
0.0
 11
649.48439324860408
 21
1457.439908511021
 31
0.0
  0
LINE
  5
34A9
  8
FACILITY
 62
     7
 10
578.96910613939178
 20
1379.5000001993501
 30
0.0
 11
586.96910613939235
 21
1387.5000001993501
 31
0.0
  0
LINE
  5
34AA
  8
FACILITY
 62
     7
 10
641.48439324860419
 20
1442.0152873085619
 30
0.0
 11
649.48439324860374
 21
1450.0152873085619
 31
0.0
  0
LINE
  5
34AB
  8
FACILITY
 62
     7
 10
586.39372734185054
 20
1379.500000199351
 30
0.0
 11
594.39372734184963
 21
1387.5000001993501
 31
0.0
  0
LINE
  5
34AC
  8
FACILITY
 62
     7
 10
641.48439324860419
 20
1434.5906661061049
 30
0.0
 11
649.48439324860317
 21
1442.590666106104
 31
0.0
  0
LINE
  5
34AD
  8
FACILITY
 62
     7
 10
593.81834854430963
 20
1379.500000199351
 30
0.0
 11
601.81834854430906
 21
1387.500000199351
 31
0.0
  0
LINE
  5
34AE
  8
FACILITY
 62
     7
 10
641.48439324860374
 20
1427.1660449036449
 30
0.0
 11
649.48439324860374
 21
1435.1660449036449
 31
0.0
  0
LINE
  5
34AF
  8
FACILITY
 62
     7
 10
601.24296974676872
 20
1379.500000199351
 30
0.0
 11
609.24296974676815
 21
1387.500000199351
 31
0.0
  0
LINE
  5
34B0
  8
FACILITY
 62
     7
 10
641.48439324860374
 20
1419.741423701186
 30
0.0
 11
649.48439324860408
 21
1427.7414237011869
 31
0.0
  0
LINE
  5
34B1
  8
FACILITY
 62
     7
 10
608.66759094922725
 20
1379.500000199351
 30
0.0
 11
616.66759094922691
 21
1387.5000001993501
 31
0.0
  0
LINE
  5
34B2
  8
FACILITY
 62
     7
 10
641.48439324860374
 20
1412.3168024987269
 30
0.0
 11
649.48439324860408
 21
1420.3168024987281
 31
0.0
  0
LINE
  5
34B3
  8
FACILITY
 62
     7
 10
616.09221215168645
 20
1379.500000199351
 30
0.0
 11
624.09221215168589
 21
1387.5000001993501
 31
0.0
  0
LINE
  5
34B4
  8
FACILITY
 62
     7
 10
641.48439324860419
 20
1404.8921812962681
 30
0.0
 11
649.48439324860465
 21
1412.892181296269
 31
0.0
  0
LINE
  5
34B5
  8
FACILITY
 62
     7
 10
623.51683335414418
 20
1379.5000001993501
 30
0.0
 11
631.51683335414418
 21
1387.5000001993501
 31
0.0
  0
LINE
  5
34B6
  8
FACILITY
 62
     7
 10
641.48439324860283
 20
1397.467560093809
 30
0.0
 11
649.48439324860317
 21
1405.4675600938101
 31
0.0
  0
LINE
  5
34B7
  8
FACILITY
 62
     7
 10
630.94145455660282
 20
1379.500000199351
 30
0.0
 11
638.94145455660282
 21
1387.500000199351
 31
0.0
  0
LINE
  5
34B8
  8
FACILITY
 62
     7
 10
641.48439324860283
 20
1390.042938891351
 30
0.0
 11
649.48439324860317
 21
1398.042938891351
 31
0.0
  0
LINE
  5
34B9
  8
FACILITY
 62
     7
 10
638.36607575906226
 20
1379.500000199351
 30
0.0
 11
649.48439324860408
 21
1390.6183176888931
 31
0.0
  0
LINE
  5
34BA
  8
FACILITY
 62
     7
 10
645.79069696152089
 20
1379.500000199351
 30
0.0
 11
649.48439324860408
 21
1383.193696486434
 31
0.0
  0
LINE
  5
34BB
  8
FACILITY
 62
     7
 10
498.2415607290294
 20
1379.500000199351
 30
0.0
 11
497.4843932486055
 21
1380.257167679775
 31
0.0
  0
LINE
  5
34BC
  8
FACILITY
 62
     7
 10
505.66618193148668
 20
1379.5000001993501
 30
0.0
 11
497.66618193148679
 21
1387.5000001993501
 31
0.0
  0
LINE
  5
34BD
  8
FACILITY
 62
     7
 10
513.09080313394577
 20
1379.5000001993501
 30
0.0
 11
505.09080313394583
 21
1387.5000001993501
 31
0.0
  0
LINE
  5
34BE
  8
FACILITY
 62
     7
 10
520.51542433640498
 20
1379.5000001993501
 30
0.0
 11
512.51542433640498
 21
1387.5000001993501
 31
0.0
  0
LINE
  5
34BF
  8
FACILITY
 62
     7
 10
527.94004553886396
 20
1379.500000199349
 30
0.0
 11
519.94004553886396
 21
1387.500000199349
 31
0.0
  0
LINE
  5
34C0
  8
FACILITY
 62
     7
 10
535.36466674132305
 20
1379.500000199349
 30
0.0
 11
527.36466674132305
 21
1387.5000001993501
 31
0.0
  0
LINE
  5
34C1
  8
FACILITY
 62
     7
 10
542.78928794378226
 20
1379.5000001993501
 30
0.0
 11
534.78928794378135
 21
1387.5000001993501
 31
0.0
  0
LINE
  5
34C2
  8
FACILITY
 62
     7
 10
550.21390914624044
 20
1379.5000001993501
 30
0.0
 11
542.21390914624044
 21
1387.5000001993501
 31
0.0
  0
LINE
  5
34C3
  8
FACILITY
 62
     7
 10
557.63853034869953
 20
1379.5000001993501
 30
0.0
 11
549.63853034869953
 21
1387.5000001993501
 31
0.0
  0
LINE
  5
34C4
  8
FACILITY
 62
     7
 10
565.06315155115772
 20
1379.5000001993501
 30
0.0
 11
557.06315155115772
 21
1387.5000001993501
 31
0.0
  0
LINE
  5
34C5
  8
FACILITY
 62
     7
 10
572.48777275361681
 20
1379.5000001993501
 30
0.0
 11
564.48777275361681
 21
1387.500000199351
 31
0.0
  0
LINE
  5
34C6
  8
FACILITY
 62
     7
 10
579.91239395607488
 20
1379.500000199351
 30
0.0
 11
571.91239395607488
 21
1387.500000199351
 31
0.0
  0
LINE
  5
34C7
  8
FACILITY
 62
     7
 10
587.33701515853318
 20
1379.5000001993501
 30
0.0
 11
579.33701515853318
 21
1387.5000001993501
 31
0.0
  0
LINE
  5
34C8
  8
FACILITY
 62
     7
 10
594.76163636099216
 20
1379.5000001993501
 30
0.0
 11
586.76163636099216
 21
1387.5000001993501
 31
0.0
  0
LINE
  5
34C9
  8
FACILITY
 62
     7
 10
602.18625756345125
 20
1379.5000001993501
 30
0.0
 11
594.18625756345125
 21
1387.5000001993501
 31
0.0
  0
LINE
  5
34CA
  8
FACILITY
 62
     7
 10
609.61087876591046
 20
1379.500000199349
 30
0.0
 11
601.61087876591046
 21
1387.500000199349
 31
0.0
  0
LINE
  5
34CB
  8
FACILITY
 62
     7
 10
617.03549996836955
 20
1379.5000001993501
 30
0.0
 11
609.03549996836955
 21
1387.5000001993501
 31
0.0
  0
LINE
  5
34CC
  8
FACILITY
 62
     7
 10
624.46012117082773
 20
1379.5000001993501
 30
0.0
 11
616.46012117082773
 21
1387.5000001993501
 31
0.0
  0
LINE
  5
34CD
  8
FACILITY
 62
     7
 10
631.88474237328683
 20
1379.5000001993501
 30
0.0
 11
623.88474237328683
 21
1387.5000001993501
 31
0.0
  0
LINE
  5
34CE
  8
FACILITY
 62
     7
 10
639.30936357574501
 20
1379.5000001993501
 30
0.0
 11
631.30936357574501
 21
1387.5000001993501
 31
0.0
  0
LINE
  5
34CF
  8
FACILITY
 62
     7
 10
646.73398477820399
 20
1379.5000001993501
 30
0.0
 11
638.73398477820399
 21
1387.5000001993501
 31
0.0
  0
LINE
  5
34D0
  8
FACILITY
 62
     7
 10
649.48439324860374
 20
1384.17421293141
 30
0.0
 11
641.48439324860374
 21
1392.1742129314091
 31
0.0
  0
LINE
  5
34D1
  8
FACILITY
 62
     7
 10
649.48439324860283
 20
1391.598834133868
 30
0.0
 11
641.48439324860283
 21
1399.598834133868
 31
0.0
  0
LINE
  5
34D2
  8
FACILITY
 62
     7
 10
649.48439324860374
 20
1399.0234553363271
 30
0.0
 11
641.48439324860192
 21
1407.023455336328
 31
0.0
  0
LINE
  5
34D3
  8
FACILITY
 62
     7
 10
649.48439324860465
 20
1406.4480765387841
 30
0.0
 11
641.48439324860465
 21
1414.4480765387841
 31
0.0
  0
LINE
  5
34D4
  8
FACILITY
 62
     7
 10
649.48439324860374
 20
1413.872697741243
 30
0.0
 11
641.48439324860374
 21
1421.872697741243
 31
0.0
  0
LINE
  5
34D5
  8
FACILITY
 62
     7
 10
649.48439324860374
 20
1421.2973189437021
 30
0.0
 11
641.48439324860374
 21
1429.2973189437021
 31
0.0
  0
LINE
  5
34D6
  8
FACILITY
 62
     7
 10
649.48439324860374
 20
1428.7219401461609
 30
0.0
 11
641.48439324860374
 21
1436.7219401461609
 31
0.0
  0
LINE
  5
34D7
  8
FACILITY
 62
     7
 10
649.48439324860374
 20
1436.14656134862
 30
0.0
 11
641.48439324860283
 21
1444.1465613486209
 31
0.0
  0
LINE
  5
34D8
  8
FACILITY
 62
     7
 10
649.48439324860556
 20
1443.5711825510771
 30
0.0
 11
641.48439324860556
 21
1451.5711825510771
 31
0.0
  0
LINE
  5
34D9
  8
FACILITY
 62
     7
 10
649.48439324860374
 20
1450.995803753538
 30
0.0
 11
641.48439324860374
 21
1458.995803753538
 31
0.0
  0
LINE
  5
34DA
  8
FACILITY
 62
     7
 10
649.48439324860374
 20
1458.4204249559971
 30
0.0
 11
641.48439324860374
 21
1466.4204249559971
 31
0.0
  0
LINE
  5
34DB
  8
FACILITY
 62
     7
 10
649.48439324860283
 20
1465.8450461584559
 30
0.0
 11
641.48439324860283
 21
1473.8450461584559
 31
0.0
  0
LINE
  5
34DC
  8
FACILITY
 62
     7
 10
649.48439324860283
 20
1473.2696673609139
 30
0.0
 11
641.48439324860465
 21
1481.2696673609121
 31
0.0
  0
LINE
  5
34DD
  8
FACILITY
 62
     7
 10
649.48439324860465
 20
1480.6942885633709
 30
0.0
 11
641.48439324860465
 21
1488.6942885633709
 31
0.0
  0
LINE
  5
34DE
  8
FACILITY
 62
     7
 10
649.48439324860374
 20
1488.1189097658309
 30
0.0
 11
641.48439324860374
 21
1496.1189097658321
 31
0.0
  0
LINE
  5
34DF
  8
FACILITY
 62
     7
 10
649.48439324860374
 20
1495.5435309682889
 30
0.0
 11
641.48439324860374
 21
1503.5435309682889
 31
0.0
  0
LINE
  5
34E0
  8
FACILITY
 62
     7
 10
649.48439324860374
 20
1502.968152170748
 30
0.0
 11
641.48439324860374
 21
1510.968152170748
 31
0.0
  0
LINE
  5
34E1
  8
FACILITY
 62
     7
 10
649.48439324860374
 20
1510.392773373208
 30
0.0
 11
641.48439324860374
 21
1518.392773373208
 31
0.0
  0
LINE
  5
34E2
  8
FACILITY
 62
     7
 10
649.48439324860556
 20
1517.817394575665
 30
0.0
 11
641.48439324860556
 21
1525.817394575665
 31
0.0
  0
LINE
  5
34E3
  8
FACILITY
 62
     7
 10
649.48439324860374
 20
1525.242015778126
 30
0.0
 11
641.48439324860465
 21
1533.2420157781239
 31
0.0
  0
LINE
  5
34E4
  8
FACILITY
 62
     7
 10
649.48439324860374
 20
1532.6666369805839
 30
0.0
 11
641.48439324860374
 21
1540.6666369805839
 31
0.0
  0
LINE
  5
34E5
  8
FACILITY
 62
     7
 10
649.48439324860374
 20
1540.091258183043
 30
0.0
 11
641.48439324860374
 21
1548.091258183043
 31
0.0
  0
LINE
  5
34E6
  8
FACILITY
 62
     7
 10
649.48439324860465
 20
1547.515879385501
 30
0.0
 11
641.48439324860465
 21
1555.515879385501
 31
0.0
  0
LINE
  5
34E7
  8
FACILITY
 62
     7
 10
649.48439324860465
 20
1554.9405005879589
 30
0.0
 11
641.48439324860465
 21
1562.9405005879589
 31
0.0
  0
LINE
  5
34E8
  8
FACILITY
 62
     7
 10
649.48439324860465
 20
1562.365121790418
 30
0.0
 11
641.48439324860465
 21
1570.365121790418
 31
0.0
  0
LINE
  5
34E9
  8
FACILITY
 62
     7
 10
649.48439324860374
 20
1569.7897429928771
 30
0.0
 11
641.48439324860374
 21
1577.7897429928771
 31
0.0
  0
LINE
  5
34EA
  8
FACILITY
 62
     7
 10
649.48439324860374
 20
1577.214364195336
 30
0.0
 11
643.19875724458961
 21
1583.500000199351
 31
0.0
  0
LINE
  5
34EB
  8
FACILITY
  6
CONTINUOUS
 62
     7
 10
497.48439324860459
 20
1645.500000199351
 30
0.0
 11
497.48439324860459
 21
1653.500000199351
 31
0.0
  0
LINE
  5
34EC
  8
FACILITY
  6
CONTINUOUS
 62
     7
 10
497.48439324860459
 20
1653.500000199351
 30
0.0
 11
649.48439324860465
 21
1653.500000199351
 31
0.0
  0
LINE
  5
34ED
  8
FACILITY
  6
CONTINUOUS
 62
     7
 10
649.48439324860465
 20
1653.500000199351
 30
0.0
 11
649.48439324860442
 21
1623.500000199351
 31
0.0
  0
LINE
  5
34EE
  8
FACILITY
  6
CONTINUOUS
 62
     7
 10
649.48439324860442
 20
1623.500000199351
 30
0.0
 11
641.48439324860442
 21
1623.500000199351
 31
0.0
  0
LINE
  5
34EF
  8
FACILITY
  6
CONTINUOUS
 62
     7
 10
641.48439324860442
 20
1623.500000199351
 30
0.0
 11
641.48439324860465
 21
1645.500000199351
 31
0.0
  0
LINE
  5
34F0
  8
FACILITY
  6
CONTINUOUS
 62
     7
 10
641.48439324860465
 20
1645.500000199351
 30
0.0
 11
497.48439324860459
 21
1645.500000199351
 31
0.0
  0
LINE
  5
34F1
  8
FACILITY
  6
CONTINUOUS
 62
     7
 10
497.48439324860459
 20
1645.500000199351
 30
0.0
 11
497.48439324860459
 21
1645.500000199351
 31
0.0
  0
TEXT
  5
34F2
  8
FACILITY
 62
     7
 10
5177.4843932486192
 20
432.277828981433
 30
0.0
 40
19.0
  1
RAMP
 50
90.0
  7
ROOMS
1001
ACAD
1000
MTEXTBEGIN
1070
    73
1070
     1
1070
    44
1040
1.0
1070
    74
1070
     0
1000
MTEXTEND
1000
MTEXTBEGIN
1070
    73
1070
     1
1070
    44
1040
1.0
1070
    74
1070
     0
1000
MTEXTEND
  0
LINE
  5
34F3
  8
FACILITY
 62
     7
 10
5085.984393248621
 20
184.00000092449591
 30
0.0
 11
5079.984393248621
 21
184.00000092449591
 31
0.0
  0
LINE
  5
34F4
  8
FACILITY
 62
     7
 10
5079.984393248621
 20
184.00000092449591
 30
0.0
 11
5079.984393248621
 21
664.00000092449591
 31
0.0
  0
LINE
  5
34F5
  8
FACILITY
 62
     7
 10
5079.984393248621
 20
664.00000092449591
 30
0.0
 11
5085.9843932486046
 21
664.00000092449591
 31
0.0
  0
LINE
  5
34F6
  8
FACILITY
 62
     7
 10
5085.9843932486046
 20
664.00000092449591
 30
0.0
 11
5085.984393248621
 21
184.00000092449591
 31
0.0
  0
LINE
  5
34F7
  8
FACILITY
 62
     7
 10
5085.984393248621
 20
184.00000092449591
 30
0.0
 11
5249.984393248621
 21
184.00000092450131
 31
0.0
  0
LINE
  5
34F8
  8
FACILITY
 62
     7
 10
5249.984393248621
 20
184.00000092450131
 30
0.0
 11
5249.9843932486037
 21
664.00000092450136
 31
0.0
  0
LINE
  5
34F9
  8
FACILITY
 62
     7
 10
5249.9843932486037
 20
664.00000092450136
 30
0.0
 11
5255.9843932486046
 21
664.00000092450136
 31
0.0
  0
LINE
  5
34FA
  8
FACILITY
 62
     7
 10
5255.9843932486046
 20
664.00000092450136
 30
0.0
 11
5255.9843932486201
 21
184.00000092450131
 31
0.0
  0
LINE
  5
34FB
  8
FACILITY
 62
     7
 10
5255.9843932486201
 20
184.00000092450131
 30
0.0
 11
5249.984393248621
 21
184.00000092450131
 31
0.0
  0
LINE
  5
3513
  8
FACILITY
 62
     7
 10
5252.984393248601
 20
675.50000092450125
 30
0.0
 11
5082.984393248601
 21
675.50000092449591
 31
0.0
  0
LINE
  5
3514
  8
FACILITY
 62
     7
 10
5082.984393248601
 20
675.50000092449591
 30
0.0
 11
5082.984393248601
 21
677.50000092449579
 31
0.0
  0
LINE
  5
3515
  8
FACILITY
 62
     7
 10
5082.984393248601
 20
677.50000092449579
 30
0.0
 11
5252.984393248601
 21
677.50000092450125
 31
0.0
  0
LINE
  5
3516
  8
FACILITY
 62
     7
 10
5252.984393248601
 20
677.50000092450125
 30
0.0
 11
5252.984393248601
 21
675.50000092450125
 31
0.0
  0
LINE
  5
351F
  8
FACILITY
 62
     7
 10
7447.9843932486046
 20
663.99999926327564
 30
0.0
 11
7447.9843932486046
 21
615.99999926327564
 31
0.0
  0
LINE
  5
3520
  8
FACILITY
 62
     7
 10
7447.9843932486046
 20
615.99999926327564
 30
0.0
 11
6847.9843932486046
 21
615.99999926327564
 31
0.0
  0
LINE
  5
3521
  8
FACILITY
 62
     7
 10
6847.9843932486046
 20
615.99999926327564
 30
0.0
 11
6847.9843932486046
 21
663.99999926327564
 31
0.0
  0
LINE
  5
3522
  8
FACILITY
 62
     7
 10
4867.9843932486046
 20
664.00000019935248
 30
0.0
 11
4867.9843932486046
 21
616.0000001993526
 31
0.0
  0
LINE
  5
3523
  8
FACILITY
 62
     7
 10
4867.9843932486046
 20
616.0000001993526
 30
0.0
 11
4117.9843932486037
 21
616.0000001993526
 31
0.0
  0
LINE
  5
3524
  8
FACILITY
 62
     7
 10
4117.9843932486037
 20
616.0000001993526
 30
0.0
 11
4117.9843932486037
 21
664.00000019935248
 31
0.0
  0
LINE
  5
3525
  8
FACILITY
 62
     7
 10
8647.9843932486037
 20
1906.000000199349
 30
0.0
 11
8653.9843932486037
 21
1906.000000199349
 31
0.0
  0
LINE
  5
3526
  8
FACILITY
 62
     7
 10
8653.9843932486037
 20
1906.000000199349
 30
0.0
 11
8653.9843932486037
 21
1918.000000199349
 31
0.0
  0
LINE
  5
3527
  8
FACILITY
 62
     7
 10
8653.9843932486037
 20
1918.000000199349
 30
0.0
 11
8647.9843932486037
 21
1918.000000199349
 31
0.0
  0
LINE
  5
3528
  8
FACILITY
 62
     7
 10
8647.9843932486037
 20
1918.000000199349
 30
0.0
 11
8647.9843932486037
 21
1906.000000199349
 31
0.0
  0
LINE
  5
3529
  8
FACILITY
 62
     7
 10
8647.9843932486037
 20
1330.000000199349
 30
0.0
 11
8653.9843932486037
 21
1330.000000199349
 31
0.0
  0
LINE
  5
352A
  8
FACILITY
 62
     7
 10
8653.9843932486037
 20
1330.000000199349
 30
0.0
 11
8653.9843932486037
 21
1342.000000199349
 31
0.0
  0
LINE
  5
352B
  8
FACILITY
 62
     7
 10
8653.9843932486037
 20
1342.000000199349
 30
0.0
 11
8647.9843932486037
 21
1342.000000199349
 31
0.0
  0
LINE
  5
352C
  8
FACILITY
 62
     7
 10
8647.9843932486037
 20
1342.000000199349
 30
0.0
 11
8647.9843932486037
 21
1330.000000199349
 31
0.0
  0
LINE
  5
352D
  8
FACILITY
 62
     7
 10
481.98439324860368
 20
1947.5000001993531
 30
0.0
 11
487.98439324860368
 21
1947.5000001993531
 31
0.0
  0
LINE
  5
352E
  8
FACILITY
 62
     7
 10
487.98439324860368
 20
1947.5000001993531
 30
0.0
 11
487.98439324860368
 21
1959.5000001993519
 31
0.0
  0
LINE
  5
352F
  8
FACILITY
 62
     7
 10
487.98439324860368
 20
1959.5000001993519
 30
0.0
 11
481.98439324860368
 21
1959.5000001993519
 31
0.0
  0
LINE
  5
3530
  8
FACILITY
 62
     7
 10
481.98439324860368
 20
1959.5000001993519
 30
0.0
 11
481.98439324860368
 21
1947.5000001993531
 31
0.0
  0
LINE
  5
3531
  8
FACILITY
 62
     7
 10
481.98439324860368
 20
1347.5000001993531
 30
0.0
 11
487.98439324860368
 21
1347.5000001993531
 31
0.0
  0
LINE
  5
3532
  8
FACILITY
 62
     7
 10
487.98439324860368
 20
1347.5000001993531
 30
0.0
 11
487.98439324860368
 21
1359.5000001993531
 31
0.0
  0
LINE
  5
3533
  8
FACILITY
 62
     7
 10
487.98439324860368
 20
1359.5000001993531
 30
0.0
 11
481.98439324860368
 21
1359.5000001993531
 31
0.0
  0
LINE
  5
3534
  8
FACILITY
 62
     7
 10
481.98439324860368
 20
1359.5000001993531
 30
0.0
 11
481.98439324860368
 21
1347.5000001993531
 31
0.0
  0
LINE
  5
3535
  8
FACILITY
 62
     7
 10
3216.4843932486051
 20
4120.0000001993531
 30
0.0
 11
3216.4843932486051
 21
4126.0000001993531
 31
0.0
  0
LINE
  5
3536
  8
FACILITY
 62
     7
 10
3216.4843932486051
 20
4126.0000001993531
 30
0.0
 11
3204.4843932486042
 21
4126.0000001993531
 31
0.0
  0
LINE
  5
3537
  8
FACILITY
 62
     7
 10
3204.4843932486042
 20
4126.0000001993531
 30
0.0
 11
3204.4843932486042
 21
4120.0000001993531
 31
0.0
  0
LINE
  5
3538
  8
FACILITY
 62
     7
 10
3204.4843932486042
 20
4120.0000001993531
 30
0.0
 11
3216.4843932486051
 21
4120.0000001993531
 31
0.0
  0
LINE
  5
3539
  8
FACILITY
 62
     7
 10
3823.9843932486042
 20
4120.0000001993531
 30
0.0
 11
3823.9843932486042
 21
4126.0000001993531
 31
0.0
  0
LINE
  5
353A
  8
FACILITY
 62
     7
 10
3823.9843932486042
 20
4126.0000001993531
 30
0.0
 11
3811.9843932486051
 21
4126.0000001993531
 31
0.0
  0
LINE
  5
353B
  8
FACILITY
 62
     7
 10
3811.9843932486051
 20
4126.0000001993531
 30
0.0
 11
3811.9843932486051
 21
4120.0000001993531
 31
0.0
  0
LINE
  5
353C
  8
FACILITY
 62
     7
 10
3811.9843932486051
 20
4120.0000001993531
 30
0.0
 11
3823.9843932486042
 21
4120.0000001993531
 31
0.0
  0
LINE
  5
353D
  8
FACILITY
 62
     7
 10
6541.9843932486037
 20
4120.0000001993558
 30
0.0
 11
6541.9843932486037
 21
4126.0000001993558
 31
0.0
  0
LINE
  5
353E
  8
FACILITY
 62
     7
 10
6541.9843932486037
 20
4126.0000001993558
 30
0.0
 11
6529.9843932486037
 21
4126.0000001993558
 31
0.0
  0
LINE
  5
353F
  8
FACILITY
 62
     7
 10
6529.9843932486037
 20
4126.0000001993558
 30
0.0
 11
6529.9843932486037
 21
4120.0000001993558
 31
0.0
  0
LINE
  5
3540
  8
FACILITY
 62
     7
 10
6529.9843932486037
 20
4120.0000001993558
 30
0.0
 11
6541.9843932486037
 21
4120.0000001993558
 31
0.0
  0
LINE
  5
3541
  8
FACILITY
 62
     7
 10
5931.4843932486056
 20
4120.0000001993621
 30
0.0
 11
5931.4843932486056
 21
4126.0000001993621
 31
0.0
  0
LINE
  5
3542
  8
FACILITY
 62
     7
 10
5931.4843932486056
 20
4126.0000001993621
 30
0.0
 11
5919.4843932486046
 21
4126.0000001993621
 31
0.0
  0
LINE
  5
3543
  8
FACILITY
 62
     7
 10
5919.4843932486046
 20
4126.0000001993621
 30
0.0
 11
5919.4843932486046
 21
4120.0000001993621
 31
0.0
  0
LINE
  5
3544
  8
FACILITY
 62
     7
 10
5919.4843932486046
 20
4120.0000001993621
 30
0.0
 11
5931.4843932486056
 21
4120.0000001993621
 31
0.0
  0
LINE
  5
3545
  8
FACILITY
 62
     7
 10
5323.9843932486037
 20
4120.0000001993612
 30
0.0
 11
5323.9843932486037
 21
4126.0000001993603
 31
0.0
  0
LINE
  5
3546
  8
FACILITY
 62
     7
 10
5323.9843932486037
 20
4126.0000001993603
 30
0.0
 11
5311.9843932486046
 21
4126.0000001993603
 31
0.0
  0
LINE
  5
3547
  8
FACILITY
 62
     7
 10
5311.9843932486046
 20
4126.0000001993603
 30
0.0
 11
5311.9843932486046
 21
4120.0000001993612
 31
0.0
  0
LINE
  5
3548
  8
FACILITY
 62
     7
 10
5311.9843932486046
 20
4120.0000001993612
 30
0.0
 11
5323.9843932486037
 21
4120.0000001993612
 31
0.0
  0
LINE
  5
3549
  8
FACILITY
 62
     7
 10
4423.9843932486046
 20
4120.0000001993531
 30
0.0
 11
4423.9843932486046
 21
4126.0000001993531
 31
0.0
  0
LINE
  5
354A
  8
FACILITY
 62
     7
 10
4423.9843932486046
 20
4126.0000001993531
 30
0.0
 11
4411.9843932486037
 21
4126.0000001993531
 31
0.0
  0
LINE
  5
354B
  8
FACILITY
 62
     7
 10
4411.9843932486037
 20
4126.0000001993531
 30
0.0
 11
4411.9843932486037
 21
4120.0000001993531
 31
0.0
  0
LINE
  5
354C
  8
FACILITY
 62
     7
 10
4411.9843932486037
 20
4120.0000001993531
 30
0.0
 11
4423.9843932486046
 21
4120.0000001993531
 31
0.0
  0
LINE
  5
354D
  8
FACILITY
 62
     7
 10
5311.9843932486046
 20
657.99999874905802
 30
0.0
 11
5323.9843932486037
 21
657.99999874905802
 31
0.0
  0
LINE
  5
354E
  8
FACILITY
 62
     7
 10
5323.9843932486037
 20
657.99999874905802
 30
0.0
 11
5323.9843932486037
 21
663.99999874905802
 31
0.0
  0
LINE
  5
354F
  8
FACILITY
 62
     7
 10
5323.9843932486037
 20
663.99999874905802
 30
0.0
 11
5311.9843932486046
 21
663.99999874905802
 31
0.0
  0
LINE
  5
3550
  8
FACILITY
 62
     7
 10
5311.9843932486046
 20
663.99999874905802
 30
0.0
 11
5311.9843932486046
 21
657.99999874905802
 31
0.0
  0
LINE
  5
3551
  8
FACILITY
 62
     7
 10
8041.9843932486037
 20
657.99999832045955
 30
0.0
 11
8053.9843932486046
 21
657.99999832045955
 31
0.0
  0
LINE
  5
3552
  8
FACILITY
 62
     7
 10
8053.9843932486046
 20
657.99999832045955
 30
0.0
 11
8053.9843932486046
 21
663.99999832045955
 31
0.0
  0
LINE
  5
3553
  8
FACILITY
 62
     7
 10
8053.9843932486046
 20
663.99999832045955
 30
0.0
 11
8041.9843932486037
 21
663.99999832045955
 31
0.0
  0
LINE
  5
3554
  8
FACILITY
 62
     7
 10
8041.9843932486037
 20
663.99999832045955
 30
0.0
 11
8041.9843932486037
 21
657.99999832045955
 31
0.0
  0
LINE
  5
3555
  8
FACILITY
 62
     7
 10
7441.9843932486037
 20
658.00000012708551
 30
0.0
 11
7453.9843932486046
 21
658.00000012708551
 31
0.0
  0
LINE
  5
3556
  8
FACILITY
 62
     7
 10
7453.9843932486046
 20
658.00000012708551
 30
0.0
 11
7453.9843932486046
 21
664.00000012708551
 31
0.0
  0
LINE
  5
3557
  8
FACILITY
 62
     7
 10
7453.9843932486046
 20
664.00000012708551
 30
0.0
 11
7441.9843932486037
 21
664.00000012708551
 31
0.0
  0
LINE
  5
3558
  8
FACILITY
 62
     7
 10
7441.9843932486037
 20
664.00000012708551
 30
0.0
 11
7441.9843932486037
 21
658.00000012708551
 31
0.0
  0
LINE
  5
3559
  8
FACILITY
 62
     7
 10
6841.9843932486046
 20
658.00000204723915
 30
0.0
 11
6853.9843932486046
 21
658.00000204723915
 31
0.0
  0
LINE
  5
355A
  8
FACILITY
 62
     7
 10
6853.9843932486046
 20
658.00000204723915
 30
0.0
 11
6853.9843932486046
 21
664.00000204723915
 31
0.0
  0
LINE
  5
355B
  8
FACILITY
 62
     7
 10
6853.9843932486046
 20
664.00000204723915
 30
0.0
 11
6841.9843932486046
 21
664.00000204723915
 31
0.0
  0
LINE
  5
355C
  8
FACILITY
 62
     7
 10
6841.9843932486046
 20
664.00000204723915
 30
0.0
 11
6841.9843932486046
 21
658.00000204723915
 31
0.0
  0
LINE
  5
355D
  8
FACILITY
 62
     7
 10
5919.4843932562053
 20
658.00000148990898
 30
0.0
 11
5931.4843932562053
 21
658.00000148990898
 31
0.0
  0
LINE
  5
355E
  8
FACILITY
 62
     7
 10
5931.4843932562053
 20
658.00000148990898
 30
0.0
 11
5931.4843932562053
 21
664.00000148990887
 31
0.0
  0
LINE
  5
355F
  8
FACILITY
 62
     7
 10
5931.4843932562053
 20
664.00000148990887
 30
0.0
 11
5919.4843932562053
 21
664.00000148990887
 31
0.0
  0
LINE
  5
3560
  8
FACILITY
 62
     7
 10
5919.4843932562053
 20
664.00000148990887
 30
0.0
 11
5919.4843932562053
 21
658.00000148990898
 31
0.0
  0
LINE
  5
3561
  8
FACILITY
 62
     7
 10
4411.9843932486037
 20
658.00000019935214
 30
0.0
 11
4423.9843932486046
 21
658.00000019935214
 31
0.0
  0
LINE
  5
3562
  8
FACILITY
 62
     7
 10
4423.9843932486046
 20
658.00000019935214
 30
0.0
 11
4423.9843932486046
 21
664.00000019935214
 31
0.0
  0
LINE
  5
3563
  8
FACILITY
 62
     7
 10
4423.9843932486046
 20
664.00000019935214
 30
0.0
 11
4411.9843932486037
 21
664.00000019935214
 31
0.0
  0
LINE
  5
3564
  8
FACILITY
 62
     7
 10
4411.9843932486037
 20
664.00000019935214
 30
0.0
 11
4411.9843932486037
 21
658.00000019935214
 31
0.0
  0
LINE
  5
3565
  8
FACILITY
 62
     7
 10
3811.9843932486051
 20
658.00000019935555
 30
0.0
 11
3823.9843932486042
 21
658.00000019935555
 31
0.0
  0
LINE
  5
3566
  8
FACILITY
 62
     7
 10
3823.9843932486042
 20
658.00000019935555
 30
0.0
 11
3823.9843932486042
 21
664.00000019935555
 31
0.0
  0
LINE
  5
3567
  8
FACILITY
 62
     7
 10
3823.9843932486042
 20
664.00000019935555
 30
0.0
 11
3811.9843932486051
 21
664.00000019935555
 31
0.0
  0
LINE
  5
3568
  8
FACILITY
 62
     7
 10
3811.9843932486051
 20
664.00000019935555
 30
0.0
 11
3811.9843932486051
 21
658.00000019935555
 31
0.0
  0
LINE
  5
3569
  8
FACILITY
 62
     7
 10
3204.4843932486042
 20
658.00000019935214
 30
0.0
 11
3216.4843932486051
 21
658.00000019935214
 31
0.0
  0
LINE
  5
356A
  8
FACILITY
 62
     7
 10
3216.4843932486051
 20
658.00000019935214
 30
0.0
 11
3216.4843932486051
 21
664.00000019935214
 31
0.0
  0
LINE
  5
356B
  8
FACILITY
 62
     7
 10
3216.4843932486051
 20
664.00000019935214
 30
0.0
 11
3204.4843932486042
 21
664.00000019935214
 31
0.0
  0
LINE
  5
356C
  8
FACILITY
 62
     7
 10
3204.4843932486042
 20
664.00000019935214
 30
0.0
 11
3204.4843932486042
 21
658.00000019935214
 31
0.0
  0
LINE
  5
356D
  8
FACILITY
 62
     7
 10
2281.9843932486042
 20
658.00000066739449
 30
0.0
 11
2293.9843932486042
 21
658.00000066739449
 31
0.0
  0
LINE
  5
356E
  8
FACILITY
 62
     7
 10
2293.9843932486042
 20
658.00000066739449
 30
0.0
 11
2293.9843932486042
 21
664.0000006673946
 31
0.0
  0
LINE
  5
356F
  8
FACILITY
 62
     7
 10
2293.9843932486042
 20
664.0000006673946
 30
0.0
 11
2281.9843932486042
 21
664.0000006673946
 31
0.0
  0
LINE
  5
3570
  8
FACILITY
 62
     7
 10
2281.9843932486042
 20
664.0000006673946
 30
0.0
 11
2281.9843932486042
 21
658.00000066739449
 31
0.0
  0
LINE
  5
3571
  8
FACILITY
 62
     7
 10
1681.984393248604
 20
658.0000001993568
 30
0.0
 11
1693.984393248604
 21
658.0000001993568
 31
0.0
  0
LINE
  5
3572
  8
FACILITY
 62
     7
 10
1693.984393248604
 20
658.0000001993568
 30
0.0
 11
1693.984393248604
 21
664.00000019935692
 31
0.0
  0
LINE
  5
3573
  8
FACILITY
 62
     7
 10
1693.984393248604
 20
664.00000019935692
 30
0.0
 11
1681.984393248604
 21
664.00000019935692
 31
0.0
  0
LINE
  5
3574
  8
FACILITY
 62
     7
 10
1681.984393248604
 20
664.00000019935692
 30
0.0
 11
1681.984393248604
 21
658.0000001993568
 31
0.0
  0
LINE
  5
3575
  8
FACILITY
 62
     7
 10
1081.984393248604
 20
658.00000019935203
 30
0.0
 11
1093.984393248604
 21
658.00000019935203
 31
0.0
  0
LINE
  5
3576
  8
FACILITY
 62
     7
 10
1093.984393248604
 20
658.00000019935203
 30
0.0
 11
1093.984393248604
 21
664.00000019935203
 31
0.0
  0
LINE
  5
3577
  8
FACILITY
 62
     7
 10
1093.984393248604
 20
664.00000019935203
 30
0.0
 11
1081.984393248604
 21
664.00000019935203
 31
0.0
  0
LINE
  5
3578
  8
FACILITY
 62
     7
 10
1081.984393248604
 20
664.00000019935203
 30
0.0
 11
1081.984393248604
 21
658.00000019935203
 31
0.0
  0
POLYLINE
  5
359B
  8
FACILITY
 66
     1
 10
0.0
 20
0.0
 30
0.0
 70
     1
  0
VERTEX
  5
3E04
  8
FACILITY
 10
8221.4843932486037
 20
1849.999997468333
 30
0.0
  0
VERTEX
  5
3E05
  8
FACILITY
 10
8234.4843932486056
 20
1849.999997468333
 30
0.0
  0
VERTEX
  5
3E06
  8
FACILITY
 10
8235.9843932486056
 20
1851.4999974683319
 30
0.0
  0
VERTEX
  5
3E07
  8
FACILITY
 10
8235.9843932486056
 20
1864.499997468333
 30
0.0
  0
VERTEX
  5
3E08
  8
FACILITY
 10
8234.4843932486056
 20
1865.9999974683319
 30
0.0
  0
VERTEX
  5
3E09
  8
FACILITY
 10
8221.4843932486037
 20
1865.9999974683319
 30
0.0
  0
VERTEX
  5
3E0A
  8
FACILITY
 10
8219.9843932486037
 20
1864.499997468333
 30
0.0
  0
VERTEX
  5
3E0B
  8
FACILITY
 10
8219.9843932486037
 20
1851.4999974683319
 30
0.0
  0
SEQEND
  5
3E0C
  8
FACILITY
  0
POLYLINE
  5
359C
  8
FACILITY
 66
     1
 10
0.0
 20
0.0
 30
0.0
 70
     1
  0
VERTEX
  5
3E0D
  8
FACILITY
 10
8221.4843932486037
 20
1315.9999974683319
 30
0.0
  0
VERTEX
  5
3E0E
  8
FACILITY
 10
8234.4843932486056
 20
1315.9999974683319
 30
0.0
  0
VERTEX
  5
3E0F
  8
FACILITY
 10
8235.9843932486056
 20
1317.499997468333
 30
0.0
  0
VERTEX
  5
3E10
  8
FACILITY
 10
8235.9843932486056
 20
1330.4999974683319
 30
0.0
  0
VERTEX
  5
3E11
  8
FACILITY
 10
8234.4843932486056
 20
1331.9999974683319
 30
0.0
  0
VERTEX
  5
3E12
  8
FACILITY
 10
8221.4843932486037
 20
1331.9999974683319
 30
0.0
  0
VERTEX
  5
3E13
  8
FACILITY
 10
8219.9843932486037
 20
1330.4999974683319
 30
0.0
  0
VERTEX
  5
3E14
  8
FACILITY
 10
8219.9843932486037
 20
1317.499997468333
 30
0.0
  0
SEQEND
  5
3E15
  8
FACILITY
  0
LINE
  5
35AF
  8
FACILITY
 62
     7
 10
7318.9843932486092
 20
675.50000019935135
 30
0.0
 11
7426.9843932486083
 21
675.50000019935135
 31
0.0
  0
LINE
  5
35B0
  8
FACILITY
 62
     7
 10
7426.9843932486083
 20
675.50000019935135
 30
0.0
 11
7426.9843932486083
 21
677.50000019935146
 31
0.0
  0
LINE
  5
35B1
  8
FACILITY
 62
     7
 10
7426.9843932486083
 20
677.50000019935146
 30
0.0
 11
7318.9843932486092
 21
677.50000019935146
 31
0.0
  0
LINE
  5
35B2
  8
FACILITY
 62
     7
 10
7318.9843932486092
 20
677.50000019935146
 30
0.0
 11
7318.9843932486092
 21
675.50000019935135
 31
0.0
  0
LINE
  5
35B3
  8
FACILITY
 62
     7
 10
7168.9843932486083
 20
675.50000019935135
 30
0.0
 11
7276.9843932486083
 21
675.50000019935135
 31
0.0
  0
LINE
  5
35B4
  8
FACILITY
 62
     7
 10
7276.9843932486083
 20
675.50000019935135
 30
0.0
 11
7276.9843932486083
 21
677.50000019935146
 31
0.0
  0
LINE
  5
35B5
  8
FACILITY
 62
     7
 10
7276.9843932486083
 20
677.50000019935146
 30
0.0
 11
7168.9843932486083
 21
677.50000019935146
 31
0.0
  0
LINE
  5
35B6
  8
FACILITY
 62
     7
 10
7168.9843932486083
 20
677.50000019935146
 30
0.0
 11
7168.9843932486083
 21
675.50000019935135
 31
0.0
  0
LINE
  5
35B7
  8
FACILITY
 62
     7
 10
7018.984393290867
 20
675.50000137610868
 30
0.0
 11
7126.984393290867
 21
675.50000137610868
 31
0.0
  0
LINE
  5
35B8
  8
FACILITY
 62
     7
 10
7126.984393290867
 20
675.50000137610868
 30
0.0
 11
7126.984393290867
 21
677.50000137610857
 31
0.0
  0
LINE
  5
35B9
  8
FACILITY
 62
     7
 10
7126.984393290867
 20
677.50000137610857
 30
0.0
 11
7018.984393290867
 21
677.50000137610857
 31
0.0
  0
LINE
  5
35BA
  8
FACILITY
 62
     7
 10
7018.984393290867
 20
677.50000137610857
 30
0.0
 11
7018.984393290867
 21
675.50000137610868
 31
0.0
  0
LINE
  5
35BB
  8
FACILITY
 62
     7
 10
6868.9843932486083
 20
675.5000013761113
 30
0.0
 11
6976.9843932486083
 21
675.5000013761113
 31
0.0
  0
LINE
  5
35BC
  8
FACILITY
 62
     7
 10
6976.9843932486083
 20
675.5000013761113
 30
0.0
 11
6976.9843932486083
 21
677.50000137611141
 31
0.0
  0
LINE
  5
35BD
  8
FACILITY
 62
     7
 10
6976.9843932486083
 20
677.50000137611141
 30
0.0
 11
6868.9843932486083
 21
677.50000137611141
 31
0.0
  0
LINE
  5
35BE
  8
FACILITY
 62
     7
 10
6868.9843932486083
 20
677.50000137611141
 30
0.0
 11
6868.9843932486083
 21
675.5000013761113
 31
0.0
  0
LINE
  5
35BF
  8
FACILITY
 62
     7
 10
4588.9843932063504
 20
675.50000175948298
 30
-10.0
 11
4696.9843932063486
 21
675.50000175948298
 31
-10.0
  0
LINE
  5
35C0
  8
FACILITY
 62
     7
 10
4696.9843932063486
 20
675.50000175948298
 30
-10.0
 11
4696.9843932063486
 21
677.50000175948287
 31
-10.0
  0
LINE
  5
35C1
  8
FACILITY
 62
     7
 10
4696.9843932063486
 20
677.50000175948287
 30
-10.0
 11
4588.9843932063504
 21
677.50000175948287
 31
-10.0
  0
LINE
  5
35C2
  8
FACILITY
 62
     7
 10
4588.9843932063504
 20
677.50000175948287
 30
-10.0
 11
4588.9843932063504
 21
675.50000175948298
 31
-10.0
  0
LINE
  5
35C3
  8
FACILITY
 62
     7
 10
4438.9843932063486
 20
675.50000051137977
 30
-10.0
 11
4546.9843932063504
 21
675.50000051137977
 31
-10.0
  0
LINE
  5
35C4
  8
FACILITY
 62
     7
 10
4546.9843932063504
 20
675.50000051137977
 30
-10.0
 11
4546.9843932063504
 21
677.50000051137965
 31
-10.0
  0
LINE
  5
35C5
  8
FACILITY
 62
     7
 10
4546.9843932063504
 20
677.50000051137965
 30
-10.0
 11
4438.9843932063486
 21
677.50000051137965
 31
-10.0
  0
LINE
  5
35C6
  8
FACILITY
 62
     7
 10
4438.9843932063486
 20
677.50000051137965
 30
-10.0
 11
4438.9843932063486
 21
675.50000051137977
 31
-10.0
  0
LINE
  5
35C7
  8
FACILITY
 62
     7
 10
4288.9843932486083
 20
675.49999926327973
 30
-10.0
 11
4396.9843932486083
 21
675.49999926327973
 31
-10.0
  0
LINE
  5
35C8
  8
FACILITY
 62
     7
 10
4396.9843932486083
 20
675.49999926327973
 30
-10.0
 11
4396.9843932486083
 21
677.49999926327973
 31
-10.0
  0
LINE
  5
35C9
  8
FACILITY
 62
     7
 10
4396.9843932486083
 20
677.49999926327973
 30
-10.0
 11
4288.9843932486083
 21
677.49999926327973
 31
-10.0
  0
LINE
  5
35CA
  8
FACILITY
 62
     7
 10
4288.9843932486083
 20
677.49999926327973
 30
-10.0
 11
4288.9843932486083
 21
675.49999926327973
 31
-10.0
  0
LINE
  5
35CB
  8
FACILITY
 62
     7
 10
4138.9843932063486
 20
675.50000019935624
 30
-10.0
 11
4246.9843932063486
 21
675.50000019935624
 31
-10.0
  0
LINE
  5
35CC
  8
FACILITY
 62
     7
 10
4246.9843932063486
 20
675.50000019935624
 30
-10.0
 11
4246.9843932063486
 21
677.50000019935624
 31
-10.0
  0
LINE
  5
35CD
  8
FACILITY
 62
     7
 10
4246.9843932063486
 20
677.50000019935624
 30
-10.0
 11
4138.9843932063486
 21
677.50000019935624
 31
-10.0
  0
LINE
  5
35CE
  8
FACILITY
 62
     7
 10
4138.9843932063486
 20
677.50000019935624
 30
-10.0
 11
4138.9843932063486
 21
675.50000019935624
 31
-10.0
  0
LINE
  5
35CF
  8
FACILITY
 62
     7
 10
2158.9843932486078
 20
675.50000113543047
 30
0.0
 11
2266.9843932486069
 21
675.50000113543047
 31
0.0
  0
LINE
  5
35D0
  8
FACILITY
 62
     7
 10
2266.9843932486069
 20
675.50000113543047
 30
0.0
 11
2266.9843932486069
 21
677.50000113543058
 31
0.0
  0
LINE
  5
35D1
  8
FACILITY
 62
     7
 10
2266.9843932486069
 20
677.50000113543058
 30
0.0
 11
2158.9843932486078
 21
677.50000113543058
 31
0.0
  0
LINE
  5
35D2
  8
FACILITY
 62
     7
 10
2158.9843932486078
 20
677.50000113543058
 30
0.0
 11
2158.9843932486078
 21
675.50000113543047
 31
0.0
  0
LINE
  5
35D3
  8
FACILITY
 62
     7
 10
2008.9843932486081
 20
675.50000144745582
 30
0.0
 11
2116.9843932486069
 21
675.50000144745582
 31
0.0
  0
LINE
  5
35D4
  8
FACILITY
 62
     7
 10
2116.9843932486069
 20
675.50000144745582
 30
0.0
 11
2116.9843932486069
 21
677.5000014474557
 31
0.0
  0
LINE
  5
35D5
  8
FACILITY
 62
     7
 10
2116.9843932486069
 20
677.5000014474557
 30
0.0
 11
2008.9843932486081
 21
677.5000014474557
 31
0.0
  0
LINE
  5
35D6
  8
FACILITY
 62
     7
 10
2008.9843932486081
 20
677.5000014474557
 30
0.0
 11
2008.9843932486081
 21
675.50000144745582
 31
0.0
  0
LINE
  5
35D7
  8
FACILITY
 62
     7
 10
1858.9843932486081
 20
675.5000001993543
 30
0.0
 11
1966.9843932486069
 21
675.5000001993543
 31
0.0
  0
LINE
  5
35D8
  8
FACILITY
 62
     7
 10
1966.9843932486069
 20
675.5000001993543
 30
0.0
 11
1966.9843932486069
 21
677.5000001993543
 31
0.0
  0
LINE
  5
35D9
  8
FACILITY
 62
     7
 10
1966.9843932486069
 20
677.5000001993543
 30
0.0
 11
1858.9843932486081
 21
677.5000001993543
 31
0.0
  0
LINE
  5
35DA
  8
FACILITY
 62
     7
 10
1858.9843932486081
 20
677.5000001993543
 30
0.0
 11
1858.9843932486081
 21
675.5000001993543
 31
0.0
  0
LINE
  5
35DB
  8
FACILITY
 62
     7
 10
1708.984393290867
 20
675.50000019934816
 30
0.0
 11
1816.984393290867
 21
675.50000019934816
 31
0.0
  0
LINE
  5
35DC
  8
FACILITY
 62
     7
 10
1816.984393290867
 20
675.50000019934816
 30
0.0
 11
1816.984393290867
 21
677.50000019934828
 31
0.0
  0
LINE
  5
35DD
  8
FACILITY
 62
     7
 10
1816.984393290867
 20
677.50000019934828
 30
0.0
 11
1708.984393290867
 21
677.50000019934828
 31
0.0
  0
LINE
  5
35DE
  8
FACILITY
 62
     7
 10
1708.984393290867
 20
677.50000019934828
 30
0.0
 11
1708.984393290867
 21
675.50000019934816
 31
0.0
  0
LINE
  5
35DF
  8
FACILITY
 62
     7
 10
6120.9843932486046
 20
4117.2500001993567
 30
10.0
 11
6122.984393248601
 21
4117.2500001993567
 31
10.0
  0
LINE
  5
35E0
  8
FACILITY
 62
     7
 10
6122.984393248601
 20
4117.2500001993567
 30
10.0
 11
6122.984393248601
 21
4112.5000001993558
 31
10.0
  0
LINE
  5
35E1
  8
FACILITY
 62
     7
 10
6122.984393248601
 20
4112.5000001993558
 30
10.0
 11
6120.9843932486046
 21
4112.5000001993531
 31
10.0
  0
LINE
  5
35E2
  8
FACILITY
 62
     7
 10
6120.9843932486046
 20
4112.5000001993531
 30
10.0
 11
6120.9843932486046
 21
4117.2500001993567
 31
10.0
  0
LINE
  5
35E3
  8
FACILITY
 62
     7
 10
6160.9843932486046
 20
4117.2500001993603
 30
10.0
 11
6158.9843932486046
 21
4117.2500001993603
 31
10.0
  0
LINE
  5
35E4
  8
FACILITY
 62
     7
 10
6158.9843932486046
 20
4117.2500001993603
 30
10.0
 11
6158.9843932486046
 21
4112.5000001993558
 31
10.0
  0
LINE
  5
35E5
  8
FACILITY
 62
     7
 10
6158.9843932486046
 20
4112.5000001993558
 30
10.0
 11
6160.9843932486046
 21
4112.5000001993558
 31
10.0
  0
LINE
  5
35E6
  8
FACILITY
 62
     7
 10
6160.9843932486046
 20
4112.5000001993558
 30
10.0
 11
6160.9843932486046
 21
4117.2500001993603
 31
10.0
  0
LINE
  5
35E7
  8
FACILITY
 62
     7
 10
6158.9843932486046
 20
4114.8750001993612
 30
10.0
 11
6157.2343932486046
 21
4114.8750001993612
 31
10.0
  0
LINE
  5
35E8
  8
FACILITY
 62
     7
 10
6157.2343932486046
 20
4114.8750001993612
 30
10.0
 11
6157.234393248601
 21
4150.8750001993567
 31
10.0
  0
LINE
  5
35E9
  8
FACILITY
 62
     7
 10
6157.234393248601
 20
4150.8750001993567
 30
10.0
 11
6158.984393248601
 21
4150.8750001993567
 31
10.0
  0
LINE
  5
35EA
  8
FACILITY
 62
     7
 10
6158.984393248601
 20
4150.8750001993567
 30
10.0
 11
6158.9843932486046
 21
4114.8750001993612
 31
10.0
  0
LINE
  5
35EB
  8
FACILITY
 62
     7
 10
3098.4843932486078
 20
4117.2500001993603
 30
0.0
 11
3100.4843932486051
 21
4117.2500001993603
 31
0.0
  0
LINE
  5
35EC
  8
FACILITY
 62
     7
 10
3100.4843932486051
 20
4117.2500001993603
 30
0.0
 11
3100.4843932486051
 21
4112.5000001993603
 31
0.0
  0
LINE
  5
35ED
  8
FACILITY
 62
     7
 10
3100.4843932486051
 20
4112.5000001993603
 30
0.0
 11
3098.4843932486078
 21
4112.5000001993558
 31
0.0
  0
LINE
  5
35EE
  8
FACILITY
 62
     7
 10
3098.4843932486078
 20
4112.5000001993558
 30
0.0
 11
3098.4843932486078
 21
4117.2500001993603
 31
0.0
  0
LINE
  5
35EF
  8
FACILITY
 62
     7
 10
3138.4843932486078
 20
4117.250000199364
 30
0.0
 11
3136.4843932486078
 21
4117.250000199364
 31
0.0
  0
LINE
  5
35F0
  8
FACILITY
 62
     7
 10
3136.4843932486078
 20
4117.250000199364
 30
0.0
 11
3136.4843932486078
 21
4112.5000001993603
 31
0.0
  0
LINE
  5
35F1
  8
FACILITY
 62
     7
 10
3136.4843932486078
 20
4112.5000001993603
 30
0.0
 11
3138.4843932486078
 21
4112.5000001993603
 31
0.0
  0
LINE
  5
35F2
  8
FACILITY
 62
     7
 10
3138.4843932486078
 20
4112.5000001993603
 30
0.0
 11
3138.4843932486078
 21
4117.250000199364
 31
0.0
  0
LINE
  5
35F3
  8
FACILITY
 62
     7
 10
3136.4843932486078
 20
4114.875000199364
 30
0.0
 11
3134.7343932486078
 21
4114.875000199364
 31
0.0
  0
LINE
  5
35F4
  8
FACILITY
 62
     7
 10
3134.7343932486078
 20
4114.875000199364
 30
0.0
 11
3134.7343932486051
 21
4150.8750001993603
 31
0.0
  0
LINE
  5
35F5
  8
FACILITY
 62
     7
 10
3134.7343932486051
 20
4150.8750001993603
 30
0.0
 11
3136.4843932486042
 21
4150.8750001993603
 31
0.0
  0
LINE
  5
35F6
  8
FACILITY
 62
     7
 10
3136.4843932486042
 20
4150.8750001993603
 30
0.0
 11
3136.4843932486078
 21
4114.875000199364
 31
0.0
  0
LINE
  5
35FD
  8
FACILITY
 62
     7
 10
7336.9843932486046
 20
663.99999863922062
 30
0.0
 11
7408.9843931640908
 21
663.99999863922062
 31
0.0
  0
LINE
  5
35FE
  8
FACILITY
 62
     7
 10
7408.9843931640908
 20
663.99999863922062
 30
0.0
 11
7408.9843931640908
 21
745.50000082339852
 31
0.0
  0
LINE
  5
35FF
  8
FACILITY
 62
     7
 10
7408.9843931640908
 20
745.50000082339852
 30
0.0
 11
7336.9843932486046
 21
745.50000082339852
 31
0.0
  0
LINE
  5
3600
  8
FACILITY
 62
     7
 10
7336.9843932486046
 20
745.50000082339852
 30
0.0
 11
7336.9843932486046
 21
663.99999863922062
 31
0.0
  0
LINE
  5
3601
  8
FACILITY
 62
     7
 10
7186.9843932486046
 20
663.99999988732384
 30
0.0
 11
7258.9843931640908
 21
663.99999988732384
 31
0.0
  0
LINE
  5
3602
  8
FACILITY
 62
     7
 10
7258.9843931640908
 20
663.99999988732384
 30
0.0
 11
7258.9843931640908
 21
745.50000207150174
 31
0.0
  0
LINE
  5
3603
  8
FACILITY
 62
     7
 10
7258.9843931640908
 20
745.50000207150174
 30
0.0
 11
7186.9843932486046
 21
745.50000207150174
 31
0.0
  0
LINE
  5
3604
  8
FACILITY
 62
     7
 10
7186.9843932486046
 20
745.50000207150174
 30
0.0
 11
7186.9843932486046
 21
663.99999988732384
 31
0.0
  0
LINE
  5
3605
  8
FACILITY
 62
     7
 10
7036.9843932908643
 20
664.00000137610778
 30
0.0
 11
7108.9843932063504
 21
664.00000137610778
 31
0.0
  0
LINE
  5
3606
  8
FACILITY
 62
     7
 10
7108.9843932063504
 20
664.00000137610778
 30
0.0
 11
7108.9843932063504
 21
745.50000356028556
 31
0.0
  0
LINE
  5
3607
  8
FACILITY
 62
     7
 10
7108.9843932063504
 20
745.50000356028556
 30
0.0
 11
7036.9843932908643
 21
745.50000356028556
 31
0.0
  0
LINE
  5
3608
  8
FACILITY
 62
     7
 10
7036.9843932908643
 20
745.50000356028556
 30
0.0
 11
7036.9843932908643
 21
664.00000137610778
 31
0.0
  0
LINE
  5
3609
  8
FACILITY
 62
     7
 10
6886.9843932486046
 20
663.99999919193078
 30
0.0
 11
6958.9843931640908
 21
663.99999919193078
 31
0.0
  0
LINE
  5
360A
  8
FACILITY
 62
     7
 10
6958.9843931640908
 20
663.99999919193078
 30
0.0
 11
6958.9843931640908
 21
745.50000137610857
 31
0.0
  0
LINE
  5
360B
  8
FACILITY
 62
     7
 10
6958.9843931640908
 20
745.50000137610857
 30
0.0
 11
6886.9843932486046
 21
745.50000137610857
 31
0.0
  0
LINE
  5
360C
  8
FACILITY
 62
     7
 10
6886.9843932486046
 20
745.50000137610857
 30
0.0
 11
6886.9843932486046
 21
663.99999919193078
 31
0.0
  0
LINE
  5
360D
  8
FACILITY
 62
     7
 10
4606.9843932486037
 20
664.00000175948026
 30
-10.0
 11
4678.9843931640908
 21
664.00000175948026
 31
-10.0
  0
LINE
  5
360E
  8
FACILITY
 62
     7
 10
4678.9843931640908
 20
664.00000175948026
 30
-10.0
 11
4678.9843931640908
 21
745.50000394365816
 31
-10.0
  0
LINE
  5
360F
  8
FACILITY
 62
     7
 10
4678.9843931640908
 20
745.50000394365816
 30
-10.0
 11
4606.9843932486037
 21
745.50000394365816
 31
-10.0
  0
LINE
  5
3610
  8
FACILITY
 62
     7
 10
4606.9843932486037
 20
745.50000394365816
 30
-10.0
 11
4606.9843932486037
 21
664.00000175948026
 31
-10.0
  0
LINE
  5
3611
  8
FACILITY
 62
     7
 10
4456.9843932486037
 20
664.00000051137704
 30
-10.0
 11
4528.9843931640899
 21
664.00000051137704
 31
-10.0
  0
LINE
  5
3612
  8
FACILITY
 62
     7
 10
4528.9843931640899
 20
664.00000051137704
 30
-10.0
 11
4528.9843931640899
 21
745.50000269555494
 31
-10.0
  0
LINE
  5
3613
  8
FACILITY
 62
     7
 10
4528.9843931640899
 20
745.50000269555494
 30
-10.0
 11
4456.9843932486037
 21
745.50000269555494
 31
-10.0
  0
LINE
  5
3614
  8
FACILITY
 62
     7
 10
4456.9843932486037
 20
745.50000269555494
 30
-10.0
 11
4456.9843932486037
 21
664.00000051137704
 31
-10.0
  0
LINE
  5
3615
  8
FACILITY
 62
     7
 10
4306.9843932908634
 20
663.999999263277
 30
-10.0
 11
4378.9843932063504
 21
663.999999263277
 31
-10.0
  0
LINE
  5
3616
  8
FACILITY
 62
     7
 10
4378.9843932063504
 20
663.999999263277
 30
-10.0
 11
4378.9843932063504
 21
745.50000144745491
 31
-10.0
  0
LINE
  5
3617
  8
FACILITY
 62
     7
 10
4378.9843932063504
 20
745.50000144745491
 30
-10.0
 11
4306.9843932908634
 21
745.50000144745491
 31
-10.0
  0
LINE
  5
3618
  8
FACILITY
 62
     7
 10
4306.9843932908634
 20
745.50000144745491
 30
-10.0
 11
4306.9843932908634
 21
663.999999263277
 31
-10.0
  0
LINE
  5
3619
  8
FACILITY
 62
     7
 10
4156.9843932486037
 20
663.99999801517367
 30
-10.0
 11
4228.9843931640908
 21
663.99999801517367
 31
-10.0
  0
LINE
  5
361A
  8
FACILITY
 62
     7
 10
4228.9843931640908
 20
663.99999801517367
 30
-10.0
 11
4228.9843931640908
 21
745.50000019935169
 31
-10.0
  0
LINE
  5
361B
  8
FACILITY
 62
     7
 10
4228.9843931640908
 20
745.50000019935169
 30
-10.0
 11
4156.9843932486037
 21
745.50000019935169
 31
-10.0
  0
LINE
  5
361C
  8
FACILITY
 62
     7
 10
4156.9843932486037
 20
745.50000019935169
 30
-10.0
 11
4156.9843932486037
 21
663.99999801517367
 31
-10.0
  0
LINE
  5
361D
  8
FACILITY
 62
     7
 10
2176.9843932908589
 20
664.00000113542785
 30
0.0
 11
2248.984393206345
 21
664.00000113542785
 31
0.0
  0
LINE
  5
361E
  8
FACILITY
 62
     7
 10
2248.984393206345
 20
664.00000113542785
 30
0.0
 11
2248.984393206345
 21
745.50000331960575
 31
0.0
  0
LINE
  5
361F
  8
FACILITY
 62
     7
 10
2248.984393206345
 20
745.50000331960575
 30
0.0
 11
2176.9843932908589
 21
745.50000331960575
 31
0.0
  0
LINE
  5
3620
  8
FACILITY
 62
     7
 10
2176.9843932908589
 20
745.50000331960575
 30
0.0
 11
2176.9843932908589
 21
664.00000113542785
 31
0.0
  0
LINE
  5
3621
  8
FACILITY
 62
     7
 10
2026.984393290863
 20
664.00000144745297
 30
0.0
 11
2098.9843932063482
 21
664.00000144745297
 31
0.0
  0
LINE
  5
3622
  8
FACILITY
 62
     7
 10
2098.9843932063482
 20
664.00000144745297
 30
0.0
 11
2098.9843932063482
 21
745.50000363163099
 31
0.0
  0
LINE
  5
3623
  8
FACILITY
 62
     7
 10
2098.9843932063482
 20
745.50000363163099
 30
0.0
 11
2026.984393290863
 21
745.50000363163099
 31
0.0
  0
LINE
  5
3624
  8
FACILITY
 62
     7
 10
2026.984393290863
 20
745.50000363163099
 30
0.0
 11
2026.984393290863
 21
664.00000144745297
 31
0.0
  0
LINE
  5
3625
  8
FACILITY
 62
     7
 10
1876.984393290863
 20
664.00000019935158
 30
0.0
 11
1948.9843932063479
 21
664.00000019935158
 31
0.0
  0
LINE
  5
3626
  8
FACILITY
 62
     7
 10
1948.9843932063479
 20
664.00000019935158
 30
0.0
 11
1948.9843932063479
 21
745.50000238352936
 31
0.0
  0
LINE
  5
3627
  8
FACILITY
 62
     7
 10
1948.9843932063479
 20
745.50000238352936
 30
0.0
 11
1876.984393290863
 21
745.50000238352936
 31
0.0
  0
LINE
  5
3628
  8
FACILITY
 62
     7
 10
1876.984393290863
 20
745.50000238352936
 30
0.0
 11
1876.984393290863
 21
664.00000019935158
 31
0.0
  0
LINE
  5
3629
  8
FACILITY
 62
     7
 10
1726.984393290863
 20
664.00000019934919
 30
0.0
 11
1798.98439320635
 21
664.00000019934919
 31
0.0
  0
LINE
  5
362A
  8
FACILITY
 62
     7
 10
1798.98439320635
 20
664.00000019934919
 30
0.0
 11
1798.98439320635
 21
745.50000238352698
 31
0.0
  0
LINE
  5
362B
  8
FACILITY
 62
     7
 10
1798.98439320635
 20
745.50000238352698
 30
0.0
 11
1726.984393290863
 21
745.50000238352698
 31
0.0
  0
LINE
  5
362C
  8
FACILITY
 62
     7
 10
1726.984393290863
 20
745.50000238352698
 30
0.0
 11
1726.984393290863
 21
664.00000019934919
 31
0.0
  0
LINE
  5
36C3
  8
FACILITY
 62
     7
 10
490.73439324860368
 20
1589.5000001993531
 30
0.0
 11
490.73439324860368
 21
1591.500000199349
 31
0.0
  0
LINE
  5
36C4
  8
FACILITY
 62
     7
 10
490.73439324860368
 20
1591.500000199349
 30
0.0
 11
495.48439324860368
 21
1591.500000199349
 31
0.0
  0
LINE
  5
36C5
  8
FACILITY
 62
     7
 10
495.48439324860368
 20
1591.500000199349
 30
0.0
 11
495.48439324860732
 21
1589.5000001993531
 31
0.0
  0
LINE
  5
36C6
  8
FACILITY
 62
     7
 10
495.48439324860732
 20
1589.5000001993531
 30
0.0
 11
490.73439324860368
 21
1589.5000001993531
 31
0.0
  0
LINE
  5
36C7
  8
FACILITY
 62
     7
 10
490.7343932486001
 20
1629.5000001993531
 30
0.0
 11
490.7343932486001
 21
1627.5000001993519
 31
0.0
  0
LINE
  5
36C8
  8
FACILITY
 62
     7
 10
490.7343932486001
 20
1627.5000001993519
 30
0.0
 11
495.48439324860368
 21
1627.5000001993519
 31
0.0
  0
LINE
  5
36C9
  8
FACILITY
 62
     7
 10
495.48439324860368
 20
1627.5000001993519
 30
0.0
 11
495.48439324860368
 21
1629.5000001993531
 31
0.0
  0
LINE
  5
36CA
  8
FACILITY
 62
     7
 10
495.48439324860368
 20
1629.5000001993531
 30
0.0
 11
490.7343932486001
 21
1629.5000001993531
 31
0.0
  0
LINE
  5
36CB
  8
FACILITY
 62
     7
 10
493.1093932486001
 20
1627.5000001993519
 30
0.0
 11
493.1093932486001
 21
1625.7500001993531
 31
0.0
  0
LINE
  5
36CC
  8
FACILITY
 62
     7
 10
493.1093932486001
 20
1625.7500001993531
 30
0.0
 11
457.10939324860368
 21
1625.750000199349
 31
0.0
  0
LINE
  5
36CD
  8
FACILITY
 62
     7
 10
457.10939324860368
 20
1625.750000199349
 30
0.0
 11
457.10939324860368
 21
1627.500000199349
 31
0.0
  0
LINE
  5
36CE
  8
FACILITY
 62
     7
 10
457.10939324860368
 20
1627.500000199349
 30
0.0
 11
493.1093932486001
 21
1627.5000001993519
 31
0.0
  0
LINE
  5
3725
  8
FACILITY
 62
     7
 10
1615.984393248604
 20
666.75000019935055
 30
0.0
 11
1613.9843932486081
 21
666.75000019935055
 31
0.0
  0
LINE
  5
3726
  8
FACILITY
 62
     7
 10
1613.9843932486081
 20
666.75000019935055
 30
0.0
 11
1613.9843932486081
 21
671.50000019935055
 31
0.0
  0
LINE
  5
3727
  8
FACILITY
 62
     7
 10
1613.9843932486081
 20
671.50000019935055
 30
0.0
 11
1615.984393248604
 21
671.50000019935419
 31
0.0
  0
LINE
  5
3728
  8
FACILITY
 62
     7
 10
1615.984393248604
 20
671.50000019935419
 30
0.0
 11
1615.984393248604
 21
666.75000019935055
 31
0.0
  0
LINE
  5
3729
  8
FACILITY
 62
     7
 10
1575.984393248604
 20
666.7500001993468
 30
0.0
 11
1577.984393248604
 21
666.7500001993468
 31
0.0
  0
LINE
  5
372A
  8
FACILITY
 62
     7
 10
1577.984393248604
 20
666.7500001993468
 30
0.0
 11
1577.984393248604
 21
671.50000019935055
 31
0.0
  0
LINE
  5
372B
  8
FACILITY
 62
     7
 10
1577.984393248604
 20
671.50000019935055
 30
0.0
 11
1575.984393248604
 21
671.50000019935055
 31
0.0
  0
LINE
  5
372C
  8
FACILITY
 62
     7
 10
1575.984393248604
 20
671.50000019935055
 30
0.0
 11
1575.984393248604
 21
666.7500001993468
 31
0.0
  0
LINE
  5
372D
  8
FACILITY
 62
     7
 10
1577.984393248604
 20
669.12500019934691
 30
0.0
 11
1579.734393248604
 21
669.12500019934691
 31
0.0
  0
LINE
  5
372E
  8
FACILITY
 62
     7
 10
1579.734393248604
 20
669.12500019934691
 30
0.0
 11
1579.7343932486081
 21
633.12500019935055
 31
0.0
  0
LINE
  5
372F
  8
FACILITY
 62
     7
 10
1579.7343932486081
 20
633.12500019935055
 30
0.0
 11
1577.9843932486081
 21
633.12500019935055
 31
0.0
  0
LINE
  5
3730
  8
FACILITY
 62
     7
 10
1577.9843932486081
 20
633.12500019935055
 30
0.0
 11
1577.984393248604
 21
669.12500019934691
 31
0.0
  0
LINE
  5
3731
  8
FACILITY
 62
     7
 10
4045.9843932486051
 20
666.75000019935248
 30
-10.0
 11
4043.9843932486078
 21
666.75000019935248
 31
-10.0
  0
LINE
  5
3732
  8
FACILITY
 62
     7
 10
4043.9843932486078
 20
666.75000019935248
 30
-10.0
 11
4043.9843932486078
 21
671.5000001993526
 31
-10.0
  0
LINE
  5
3733
  8
FACILITY
 62
     7
 10
4043.9843932486078
 20
671.5000001993526
 30
-10.0
 11
4045.9843932486051
 21
671.50000019935624
 31
-10.0
  0
LINE
  5
3734
  8
FACILITY
 62
     7
 10
4045.9843932486051
 20
671.50000019935624
 30
-10.0
 11
4045.9843932486051
 21
666.75000019935248
 31
-10.0
  0
LINE
  5
3735
  8
FACILITY
 62
     7
 10
4005.9843932486051
 20
666.75000019934885
 30
-10.0
 11
4007.9843932486042
 21
666.75000019934885
 31
-10.0
  0
LINE
  5
3736
  8
FACILITY
 62
     7
 10
4007.9843932486042
 20
666.75000019934885
 30
-10.0
 11
4007.9843932486042
 21
671.5000001993526
 31
-10.0
  0
LINE
  5
3737
  8
FACILITY
 62
     7
 10
4007.9843932486042
 20
671.5000001993526
 30
-10.0
 11
4005.9843932486051
 21
671.5000001993526
 31
-10.0
  0
LINE
  5
3738
  8
FACILITY
 62
     7
 10
4005.9843932486051
 20
671.5000001993526
 30
-10.0
 11
4005.9843932486051
 21
666.75000019934885
 31
-10.0
  0
LINE
  5
3739
  8
FACILITY
 62
     7
 10
4007.9843932486042
 20
669.12500019934885
 30
-10.0
 11
4009.7343932486051
 21
669.12500019934885
 31
-10.0
  0
LINE
  5
373A
  8
FACILITY
 62
     7
 10
4009.7343932486051
 20
669.12500019934885
 30
-10.0
 11
4009.7343932486078
 21
633.1250001993526
 31
-10.0
  0
LINE
  5
373B
  8
FACILITY
 62
     7
 10
4009.7343932486078
 20
633.1250001993526
 30
-10.0
 11
4007.9843932486078
 21
633.1250001993526
 31
-10.0
  0
LINE
  5
373C
  8
FACILITY
 62
     7
 10
4007.9843932486078
 20
633.1250001993526
 30
-10.0
 11
4007.9843932486042
 21
669.12500019934885
 31
-10.0
  0
LINE
  5
373D
  8
FACILITY
 62
     7
 10
6775.9843932486046
 20
666.75000328234785
 30
0.0
 11
6773.9843932486083
 21
666.75000328234785
 31
0.0
  0
LINE
  5
373E
  8
FACILITY
 62
     7
 10
6773.9843932486083
 20
666.75000328234785
 30
0.0
 11
6773.9843932486083
 21
671.50000328234785
 31
0.0
  0
LINE
  5
373F
  8
FACILITY
 62
     7
 10
6773.9843932486083
 20
671.50000328234785
 30
0.0
 11
6775.9843932486046
 21
671.50000328235149
 31
0.0
  0
LINE
  5
3740
  8
FACILITY
 62
     7
 10
6775.9843932486046
 20
671.50000328235149
 30
0.0
 11
6775.9843932486046
 21
666.75000328234785
 31
0.0
  0
LINE
  5
3741
  8
FACILITY
 62
     7
 10
6735.9843932486037
 20
666.75000328234421
 30
0.0
 11
6737.9843932486056
 21
666.75000328234421
 31
0.0
  0
LINE
  5
3742
  8
FACILITY
 62
     7
 10
6737.9843932486056
 20
666.75000328234421
 30
0.0
 11
6737.9843932486056
 21
671.50000328234785
 31
0.0
  0
LINE
  5
3743
  8
FACILITY
 62
     7
 10
6737.9843932486056
 20
671.50000328234785
 30
0.0
 11
6735.9843932486037
 21
671.50000328234785
 31
0.0
  0
LINE
  5
3744
  8
FACILITY
 62
     7
 10
6735.9843932486037
 20
671.50000328234785
 30
0.0
 11
6735.9843932486037
 21
666.75000328234421
 31
0.0
  0
LINE
  5
3745
  8
FACILITY
 62
     7
 10
6737.9843932486056
 20
669.1250032823441
 30
0.0
 11
6739.7343932486046
 21
669.1250032823441
 31
0.0
  0
LINE
  5
3746
  8
FACILITY
 62
     7
 10
6739.7343932486046
 20
669.1250032823441
 30
0.0
 11
6739.7343932486083
 21
633.12500328234785
 31
0.0
  0
LINE
  5
3747
  8
FACILITY
 62
     7
 10
6739.7343932486083
 20
633.12500328234785
 30
0.0
 11
6737.9843932486083
 21
633.12500328234785
 31
0.0
  0
LINE
  5
3748
  8
FACILITY
 62
     7
 10
6737.9843932486083
 20
633.12500328234785
 30
0.0
 11
6737.9843932486056
 21
669.1250032823441
 31
0.0
  0
LINE
  5
3749
  8
FACILITY
 62
     7
 10
8419.9843932486019
 20
664.00000019935055
 30
0.0
 11
8419.9843932486019
 21
616.00000019935055
 31
0.0
  0
LINE
  5
374A
  8
FACILITY
 62
     7
 10
8419.9843932486019
 20
616.00000019935055
 30
0.0
 11
8299.9843932486056
 21
616.00000019935055
 31
0.0
  0
LINE
  5
374B
  8
FACILITY
 62
     7
 10
8299.9843932486056
 20
616.00000019935055
 30
0.0
 11
8299.9843932486056
 21
664.00000019935055
 31
0.0
  0
LINE
  5
374C
  8
FACILITY
 62
     7
 10
8362.9843932486037
 20
668.75000019935135
 30
0.0
 11
8396.9843932486056
 21
668.75000019935135
 31
0.0
  0
LINE
  5
374D
  8
FACILITY
 62
     7
 10
8361.9843932486037
 20
666.37500019935135
 30
0.0
 11
8397.9843932486037
 21
666.37500019934964
 31
0.0
  0
LINE
  5
374E
  8
FACILITY
 62
     7
 10
8397.9843932486037
 20
666.37500019934964
 30
0.0
 11
8397.9843932486037
 21
671.12500019935135
 31
0.0
  0
LINE
  5
374F
  8
FACILITY
 62
     7
 10
8397.9843932486037
 20
671.12500019935135
 30
0.0
 11
8361.9843932486037
 21
671.12500019935135
 31
0.0
  0
LINE
  5
3750
  8
FACILITY
 62
     7
 10
8361.9843932486037
 20
671.12500019935135
 30
0.0
 11
8361.9843932486037
 21
666.37500019935135
 31
0.0
  0
LINE
  5
3751
  8
FACILITY
 62
     7
 10
8361.9843932486037
 20
671.12500019935135
 30
0.0
 11
8359.9843932486037
 21
671.12500019935135
 31
0.0
  0
LINE
  5
3752
  8
FACILITY
 62
     7
 10
8359.9843932486037
 20
671.12500019935135
 30
0.0
 11
8359.9843932486037
 21
666.37500019935135
 31
0.0
  0
LINE
  5
3753
  8
FACILITY
 62
     7
 10
8359.9843932486037
 20
666.37500019935135
 30
0.0
 11
8361.9843932486037
 21
666.37500019935135
 31
0.0
  0
LINE
  5
3754
  8
FACILITY
 62
     7
 10
8361.9843932486037
 20
666.37500019935135
 30
0.0
 11
8361.9843932486037
 21
671.12500019935135
 31
0.0
  0
LINE
  5
3755
  8
FACILITY
 62
     7
 10
8324.8593932486056
 20
633.75000019935146
 30
0.0
 11
8324.8593932486056
 21
667.75000019935135
 31
0.0
  0
LINE
  5
3756
  8
FACILITY
 62
     7
 10
8323.9843932486037
 20
668.75000019935135
 30
0.0
 11
8325.7343932486037
 21
668.75000019935135
 31
0.0
  0
LINE
  5
3757
  8
FACILITY
 62
     7
 10
8325.7343932486037
 20
668.75000019935135
 30
0.0
 11
8325.7343932486037
 21
632.75000019935135
 31
0.0
  0
LINE
  5
3758
  8
FACILITY
 62
     7
 10
8325.7343932486037
 20
632.75000019935135
 30
0.0
 11
8323.9843932486037
 21
632.75000019935135
 31
0.0
  0
LINE
  5
3759
  8
FACILITY
 62
     7
 10
8323.9843932486037
 20
632.75000019935135
 30
0.0
 11
8323.9843932486037
 21
668.75000019935135
 31
0.0
  0
LINE
  5
375A
  8
FACILITY
 62
     7
 10
8321.9843932486037
 20
671.12500019934964
 30
0.0
 11
8323.9843932486037
 21
671.12500019935135
 31
0.0
  0
LINE
  5
375B
  8
FACILITY
 62
     7
 10
8323.9843932486037
 20
671.12500019935135
 30
0.0
 11
8323.9843932486037
 21
666.37500019935135
 31
0.0
  0
LINE
  5
375C
  8
FACILITY
 62
     7
 10
8323.9843932486037
 20
666.37500019935135
 30
0.0
 11
8321.9843932486037
 21
666.37500019934964
 31
0.0
  0
LINE
  5
375D
  8
FACILITY
 62
     7
 10
8321.9843932486037
 20
666.37500019934964
 30
0.0
 11
8321.9843932486037
 21
671.12500019934964
 31
0.0
  0
LINE
  5
375E
  8
FACILITY
 62
     7
 10
835.98439324860271
 20
664.0000001993493
 30
0.0
 11
835.98439324860271
 21
616.00000019934942
 31
0.0
  0
LINE
  5
375F
  8
FACILITY
 62
     7
 10
835.98439324860271
 20
616.00000019934942
 30
0.0
 11
715.98439324860283
 21
616.00000019934942
 31
0.0
  0
LINE
  5
3760
  8
FACILITY
 62
     7
 10
715.98439324860283
 20
616.00000019934942
 30
0.0
 11
715.98439324860283
 21
664.0000001993493
 31
0.0
  0
LINE
  5
3761
  8
FACILITY
 62
     7
 10
772.98439324860283
 20
668.75000019935032
 30
0.0
 11
738.98439324860283
 21
668.75000019935032
 31
0.0
  0
LINE
  5
3762
  8
FACILITY
 62
     7
 10
773.98439324860283
 20
666.37500019935032
 30
0.0
 11
737.98439324860283
 21
666.37500019934839
 31
0.0
  0
LINE
  5
3763
  8
FACILITY
 62
     7
 10
737.98439324860283
 20
666.37500019934839
 30
0.0
 11
737.98439324860283
 21
671.12500019935032
 31
0.0
  0
LINE
  5
3764
  8
FACILITY
 62
     7
 10
737.98439324860283
 20
671.12500019935032
 30
0.0
 11
773.98439324860283
 21
671.12500019935032
 31
0.0
  0
LINE
  5
3765
  8
FACILITY
 62
     7
 10
773.98439324860283
 20
671.12500019935032
 30
0.0
 11
773.98439324860283
 21
666.37500019935032
 31
0.0
  0
LINE
  5
3766
  8
FACILITY
 62
     7
 10
773.98439324860283
 20
671.12500019935032
 30
0.0
 11
775.98439324860283
 21
671.12500019935032
 31
0.0
  0
LINE
  5
3767
  8
FACILITY
 62
     7
 10
775.98439324860283
 20
671.12500019935032
 30
0.0
 11
775.98439324860283
 21
666.37500019935032
 31
0.0
  0
LINE
  5
3768
  8
FACILITY
 62
     7
 10
775.98439324860283
 20
666.37500019935032
 30
0.0
 11
773.98439324860283
 21
666.37500019935032
 31
0.0
  0
LINE
  5
3769
  8
FACILITY
 62
     7
 10
773.98439324860283
 20
666.37500019935032
 30
0.0
 11
773.98439324860283
 21
671.12500019935032
 31
0.0
  0
LINE
  5
376A
  8
FACILITY
 62
     7
 10
811.10939324860283
 20
633.75000019935032
 30
0.0
 11
811.10939324860283
 21
667.75000019935032
 31
0.0
  0
LINE
  5
376B
  8
FACILITY
 62
     7
 10
811.98439324860294
 20
668.75000019935032
 30
0.0
 11
810.23439324860294
 21
668.75000019935032
 31
0.0
  0
LINE
  5
376C
  8
FACILITY
 62
     7
 10
810.23439324860294
 20
668.75000019935032
 30
0.0
 11
810.23439324860294
 21
632.75000019935032
 31
0.0
  0
LINE
  5
376D
  8
FACILITY
 62
     7
 10
810.23439324860294
 20
632.75000019935032
 30
0.0
 11
811.98439324860294
 21
632.75000019935032
 31
0.0
  0
LINE
  5
376E
  8
FACILITY
 62
     7
 10
811.98439324860294
 20
632.75000019935032
 30
0.0
 11
811.98439324860294
 21
668.75000019935032
 31
0.0
  0
LINE
  5
376F
  8
FACILITY
 62
     7
 10
813.98439324860283
 20
671.12500019934851
 30
0.0
 11
811.98439324860294
 21
671.12500019935032
 31
0.0
  0
LINE
  5
3770
  8
FACILITY
 62
     7
 10
811.98439324860294
 20
671.12500019935032
 30
0.0
 11
811.98439324860294
 21
666.37500019935032
 31
0.0
  0
LINE
  5
3771
  8
FACILITY
 62
     7
 10
811.98439324860294
 20
666.37500019935032
 30
0.0
 11
813.98439324860283
 21
666.37500019934839
 31
0.0
  0
LINE
  5
3772
  8
FACILITY
 62
     7
 10
813.98439324860283
 20
666.37500019934839
 30
0.0
 11
813.98439324860283
 21
671.12500019934851
 31
0.0
  0
SOLID
  5
38AB
  8
FACILITY
 10
6121.6434991229999
 20
4098.1274188605657
 30
-0.0000000000001705
 11
6140.9843932486019
 21
4120.0000001993621
 31
-0.0000000000001705
 12
6129.7827630234524
 22
4093.0369981354411
 32
-0.0000000000001705
 13
6129.7827630234524
 23
4093.0369981354411
 33
-0.0000000000001705
1001
ACAD
1000
DSTYLE
1002
{
1070
     5
1000

1070
   342
1005
0
1002
}
  0
POLYLINE
  5
3BD7
  8
FACILITY
 66
     1
 10
0.0
 20
0.0
 30
0.0
 70
     1
  0
VERTEX
  5
3E16
  8
FACILITY
 10
6241.4843932486046
 20
3451.9999974683319
 30
0.0
  0
VERTEX
  5
3E17
  8
FACILITY
 10
6254.4843932486037
 20
3451.9999974683319
 30
0.0
  0
VERTEX
  5
3E18
  8
FACILITY
 10
6255.9843932486046
 20
3453.4999974683319
 30
0.0
  0
VERTEX
  5
3E19
  8
FACILITY
 10
6255.9843932486046
 20
3466.4999974683319
 30
0.0
  0
VERTEX
  5
3E1A
  8
FACILITY
 10
6254.4843932486037
 20
3467.9999974683319
 30
0.0
  0
VERTEX
  5
3E1B
  8
FACILITY
 10
6241.4843932486046
 20
3467.9999974683319
 30
0.0
  0
VERTEX
  5
3E1C
  8
FACILITY
 10
6239.9843932486037
 20
3466.4999974683319
 30
0.0
  0
VERTEX
  5
3E1D
  8
FACILITY
 10
6239.9843932486037
 20
3453.4999974683319
 30
0.0
  0
SEQEND
  5
3E1E
  8
FACILITY
  0
POLYLINE
  5
3BD8
  8
FACILITY
 66
     1
 10
0.0
 20
0.0
 30
0.0
 70
     1
  0
VERTEX
  5
3E1F
  8
FACILITY
 10
6211.4843932486037
 20
3451.9999974683319
 30
0.0
  0
VERTEX
  5
3E20
  8
FACILITY
 10
6224.4843932486046
 20
3451.9999974683319
 30
0.0
  0
VERTEX
  5
3E21
  8
FACILITY
 10
6225.9843932486046
 20
3453.4999974683319
 30
0.0
  0
VERTEX
  5
3E22
  8
FACILITY
 10
6225.9843932486046
 20
3466.4999974683319
 30
0.0
  0
VERTEX
  5
3E23
  8
FACILITY
 10
6224.4843932486046
 20
3467.9999974683319
 30
0.0
  0
VERTEX
  5
3E24
  8
FACILITY
 10
6211.4843932486037
 20
3467.9999974683319
 30
0.0
  0
VERTEX
  5
3E25
  8
FACILITY
 10
6209.9843932486037
 20
3466.4999974683319
 30
0.0
  0
VERTEX
  5
3E26
  8
FACILITY
 10
6209.9843932486037
 20
3453.4999974683319
 30
0.0
  0
SEQEND
  5
3E27
  8
FACILITY
  0
POLYLINE
  5
3BD9
  8
FACILITY
 66
     1
 10
0.0
 20
0.0
 30
0.0
 70
     1
  0
VERTEX
  5
3E28
  8
FACILITY
 10
5551.4843932486037
 20
3451.9999974683319
 30
0.0
  0
VERTEX
  5
3E29
  8
FACILITY
 10
5564.4843932486046
 20
3451.9999974683319
 30
0.0
  0
VERTEX
  5
3E2A
  8
FACILITY
 10
5565.9843932486046
 20
3453.4999974683319
 30
0.0
  0
VERTEX
  5
3E2B
  8
FACILITY
 10
5565.9843932486046
 20
3466.4999974683319
 30
0.0
  0
VERTEX
  5
3E2C
  8
FACILITY
 10
5564.4843932486046
 20
3467.9999974683319
 30
0.0
  0
VERTEX
  5
3E2D
  8
FACILITY
 10
5551.4843932486037
 20
3467.9999974683319
 30
0.0
  0
VERTEX
  5
3E2E
  8
FACILITY
 10
5549.9843932486037
 20
3466.4999974683319
 30
0.0
  0
VERTEX
  5
3E2F
  8
FACILITY
 10
5549.9843932486037
 20
3453.4999974683319
 30
0.0
  0
SEQEND
  5
3E30
  8
FACILITY
  0
POLYLINE
  5
3BDA
  8
FACILITY
 66
     1
 10
0.0
 20
0.0
 30
0.0
 70
     1
  0
VERTEX
  5
3E31
  8
FACILITY
 10
4891.4843932486046
 20
3451.9999974683319
 30
0.0
  0
VERTEX
  5
3E32
  8
FACILITY
 10
4904.4843932486046
 20
3451.9999974683319
 30
0.0
  0
VERTEX
  5
3E33
  8
FACILITY
 10
4905.9843932486046
 20
3453.4999974683319
 30
0.0
  0
VERTEX
  5
3E34
  8
FACILITY
 10
4905.9843932486046
 20
3466.4999974683319
 30
0.0
  0
VERTEX
  5
3E35
  8
FACILITY
 10
4904.4843932486046
 20
3467.9999974683319
 30
0.0
  0
VERTEX
  5
3E36
  8
FACILITY
 10
4891.4843932486046
 20
3467.9999974683319
 30
0.0
  0
VERTEX
  5
3E37
  8
FACILITY
 10
4889.9843932486046
 20
3466.4999974683319
 30
0.0
  0
VERTEX
  5
3E38
  8
FACILITY
 10
4889.9843932486046
 20
3453.4999974683319
 30
0.0
  0
SEQEND
  5
3E39
  8
FACILITY
  0
POLYLINE
  5
3BDB
  8
FACILITY
 66
     1
 10
0.0
 20
0.0
 30
0.0
 70
     1
  0
VERTEX
  5
3E3A
  8
FACILITY
 10
4231.4843932486046
 20
3451.9999974683319
 30
0.0
  0
VERTEX
  5
3E3B
  8
FACILITY
 10
4244.4843932486037
 20
3451.9999974683319
 30
0.0
  0
VERTEX
  5
3E3C
  8
FACILITY
 10
4245.9843932486037
 20
3453.4999974683319
 30
0.0
  0
VERTEX
  5
3E3D
  8
FACILITY
 10
4245.9843932486037
 20
3466.4999974683319
 30
0.0
  0
VERTEX
  5
3E3E
  8
FACILITY
 10
4244.4843932486037
 20
3467.9999974683319
 30
0.0
  0
VERTEX
  5
3E3F
  8
FACILITY
 10
4231.4843932486046
 20
3467.9999974683319
 30
0.0
  0
VERTEX
  5
3E40
  8
FACILITY
 10
4229.9843932486046
 20
3466.4999974683319
 30
0.0
  0
VERTEX
  5
3E41
  8
FACILITY
 10
4229.9843932486046
 20
3453.4999974683319
 30
0.0
  0
SEQEND
  5
3E42
  8
FACILITY
  0
POLYLINE
  5
3BDC
  8
FACILITY
 66
     1
 10
0.0
 20
0.0
 30
0.0
 70
     1
  0
VERTEX
  5
3E43
  8
FACILITY
 10
3571.4843932486051
 20
3451.9999974683319
 30
0.0
  0
VERTEX
  5
3E44
  8
FACILITY
 10
3584.4843932486051
 20
3451.9999974683319
 30
0.0
  0
VERTEX
  5
3E45
  8
FACILITY
 10
3585.9843932486051
 20
3453.4999974683319
 30
0.0
  0
VERTEX
  5
3E46
  8
FACILITY
 10
3585.9843932486051
 20
3466.4999974683319
 30
0.0
  0
VERTEX
  5
3E47
  8
FACILITY
 10
3584.4843932486051
 20
3467.9999974683319
 30
0.0
  0
VERTEX
  5
3E48
  8
FACILITY
 10
3571.4843932486051
 20
3467.9999974683319
 30
0.0
  0
VERTEX
  5
3E49
  8
FACILITY
 10
3569.9843932486051
 20
3466.4999974683319
 30
0.0
  0
VERTEX
  5
3E4A
  8
FACILITY
 10
3569.9843932486051
 20
3453.4999974683319
 30
0.0
  0
SEQEND
  5
3E4B
  8
FACILITY
  0
POLYLINE
  5
3BDD
  8
FACILITY
 66
     1
 10
0.0
 20
0.0
 30
0.0
 70
     1
  0
VERTEX
  5
3E4C
  8
FACILITY
 10
2911.4843932486042
 20
3451.9999974683319
 30
0.0
  0
VERTEX
  5
3E4D
  8
FACILITY
 10
2924.4843932486042
 20
3451.9999974683319
 30
0.0
  0
VERTEX
  5
3E4E
  8
FACILITY
 10
2925.9843932486042
 20
3453.4999974683319
 30
0.0
  0
VERTEX
  5
3E4F
  8
FACILITY
 10
2925.9843932486042
 20
3466.4999974683319
 30
0.0
  0
VERTEX
  5
3E50
  8
FACILITY
 10
2924.4843932486042
 20
3467.9999974683319
 30
0.0
  0
VERTEX
  5
3E51
  8
FACILITY
 10
2911.4843932486042
 20
3467.9999974683319
 30
0.0
  0
VERTEX
  5
3E52
  8
FACILITY
 10
2909.9843932486042
 20
3466.4999974683319
 30
0.0
  0
VERTEX
  5
3E53
  8
FACILITY
 10
2909.9843932486042
 20
3453.4999974683319
 30
0.0
  0
SEQEND
  5
3E54
  8
FACILITY
  0
POLYLINE
  5
3BDE
  8
FACILITY
 66
     1
 10
0.0
 20
0.0
 30
0.0
 70
     1
  0
VERTEX
  5
3E55
  8
FACILITY
 10
2881.4843932486042
 20
3451.9999974683319
 30
0.0
  0
VERTEX
  5
3E56
  8
FACILITY
 10
2894.4843932486051
 20
3451.9999974683319
 30
0.0
  0
VERTEX
  5
3E57
  8
FACILITY
 10
2895.9843932486051
 20
3453.4999974683319
 30
0.0
  0
VERTEX
  5
3E58
  8
FACILITY
 10
2895.9843932486051
 20
3466.4999974683319
 30
0.0
  0
VERTEX
  5
3E59
  8
FACILITY
 10
2894.4843932486051
 20
3467.9999974683319
 30
0.0
  0
VERTEX
  5
3E5A
  8
FACILITY
 10
2881.4843932486042
 20
3467.9999974683319
 30
0.0
  0
VERTEX
  5
3E5B
  8
FACILITY
 10
2879.9843932486051
 20
3466.4999974683319
 30
0.0
  0
VERTEX
  5
3E5C
  8
FACILITY
 10
2879.9843932486051
 20
3453.4999974683319
 30
0.0
  0
SEQEND
  5
3E5D
  8
FACILITY
  0
POLYLINE
  5
3BDF
  8
FACILITY
 66
     1
 10
0.0
 20
0.0
 30
0.0
 70
     1
  0
VERTEX
  5
3E5E
  8
FACILITY
 10
6901.4843932486046
 20
2917.9999974683319
 30
0.0
  0
VERTEX
  5
3E5F
  8
FACILITY
 10
6914.4843932486046
 20
2917.9999974683319
 30
0.0
  0
VERTEX
  5
3E60
  8
FACILITY
 10
6915.9843932486056
 20
2919.4999974683319
 30
0.0
  0
VERTEX
  5
3E61
  8
FACILITY
 10
6915.9843932486056
 20
2932.4999974683319
 30
0.0
  0
VERTEX
  5
3E62
  8
FACILITY
 10
6914.4843932486046
 20
2933.9999974683319
 30
0.0
  0
VERTEX
  5
3E63
  8
FACILITY
 10
6901.4843932486046
 20
2933.9999974683319
 30
0.0
  0
VERTEX
  5
3E64
  8
FACILITY
 10
6899.9843932486046
 20
2932.4999974683319
 30
0.0
  0
VERTEX
  5
3E65
  8
FACILITY
 10
6899.9843932486046
 20
2919.4999974683319
 30
0.0
  0
SEQEND
  5
3E66
  8
FACILITY
  0
POLYLINE
  5
3BE0
  8
FACILITY
 66
     1
 10
0.0
 20
0.0
 30
0.0
 70
     1
  0
VERTEX
  5
3E67
  8
FACILITY
 10
6241.4843932486046
 20
2917.9999974683319
 30
0.0
  0
VERTEX
  5
3E68
  8
FACILITY
 10
6254.4843932486037
 20
2917.9999974683319
 30
0.0
  0
VERTEX
  5
3E69
  8
FACILITY
 10
6255.9843932486046
 20
2919.4999974683319
 30
0.0
  0
VERTEX
  5
3E6A
  8
FACILITY
 10
6255.9843932486046
 20
2932.4999974683319
 30
0.0
  0
VERTEX
  5
3E6B
  8
FACILITY
 10
6254.4843932486037
 20
2933.9999974683319
 30
0.0
  0
VERTEX
  5
3E6C
  8
FACILITY
 10
6241.4843932486046
 20
2933.9999974683319
 30
0.0
  0
VERTEX
  5
3E6D
  8
FACILITY
 10
6239.9843932486037
 20
2932.4999974683319
 30
0.0
  0
VERTEX
  5
3E6E
  8
FACILITY
 10
6239.9843932486037
 20
2919.4999974683319
 30
0.0
  0
SEQEND
  5
3E6F
  8
FACILITY
  0
POLYLINE
  5
3BE1
  8
FACILITY
 66
     1
 10
0.0
 20
0.0
 30
0.0
 70
     1
  0
VERTEX
  5
3E70
  8
FACILITY
 10
6211.4843932486037
 20
2917.9999974683319
 30
0.0
  0
VERTEX
  5
3E71
  8
FACILITY
 10
6224.4843932486046
 20
2917.9999974683319
 30
0.0
  0
VERTEX
  5
3E72
  8
FACILITY
 10
6225.9843932486046
 20
2919.4999974683319
 30
0.0
  0
VERTEX
  5
3E73
  8
FACILITY
 10
6225.9843932486046
 20
2932.4999974683319
 30
0.0
  0
VERTEX
  5
3E74
  8
FACILITY
 10
6224.4843932486046
 20
2933.9999974683319
 30
0.0
  0
VERTEX
  5
3E75
  8
FACILITY
 10
6211.4843932486037
 20
2933.9999974683319
 30
0.0
  0
VERTEX
  5
3E76
  8
FACILITY
 10
6209.9843932486037
 20
2932.4999974683319
 30
0.0
  0
VERTEX
  5
3E77
  8
FACILITY
 10
6209.9843932486037
 20
2919.4999974683319
 30
0.0
  0
SEQEND
  5
3E78
  8
FACILITY
  0
POLYLINE
  5
3BE2
  8
FACILITY
 66
     1
 10
0.0
 20
0.0
 30
0.0
 70
     1
  0
VERTEX
  5
3E79
  8
FACILITY
 10
5551.4843932486037
 20
2917.9999974683319
 30
0.0
  0
VERTEX
  5
3E7A
  8
FACILITY
 10
5564.4843932486046
 20
2917.9999974683319
 30
0.0
  0
VERTEX
  5
3E7B
  8
FACILITY
 10
5565.9843932486046
 20
2919.4999974683319
 30
0.0
  0
VERTEX
  5
3E7C
  8
FACILITY
 10
5565.9843932486046
 20
2932.4999974683319
 30
0.0
  0
VERTEX
  5
3E7D
  8
FACILITY
 10
5564.4843932486046
 20
2933.9999974683319
 30
0.0
  0
VERTEX
  5
3E7E
  8
FACILITY
 10
5551.4843932486037
 20
2933.9999974683319
 30
0.0
  0
VERTEX
  5
3E7F
  8
FACILITY
 10
5549.9843932486037
 20
2932.4999974683319
 30
0.0
  0
VERTEX
  5
3E80
  8
FACILITY
 10
5549.9843932486037
 20
2919.4999974683319
 30
0.0
  0
SEQEND
  5
3E81
  8
FACILITY
  0
POLYLINE
  5
3BE3
  8
FACILITY
 66
     1
 10
0.0
 20
0.0
 30
0.0
 70
     1
  0
VERTEX
  5
3E82
  8
FACILITY
 10
4891.4843932486046
 20
2917.9999974683319
 30
0.0
  0
VERTEX
  5
3E83
  8
FACILITY
 10
4904.4843932486046
 20
2917.9999974683319
 30
0.0
  0
VERTEX
  5
3E84
  8
FACILITY
 10
4905.9843932486046
 20
2919.4999974683319
 30
0.0
  0
VERTEX
  5
3E85
  8
FACILITY
 10
4905.9843932486046
 20
2932.4999974683319
 30
0.0
  0
VERTEX
  5
3E86
  8
FACILITY
 10
4904.4843932486046
 20
2933.9999974683319
 30
0.0
  0
VERTEX
  5
3E87
  8
FACILITY
 10
4891.4843932486046
 20
2933.9999974683319
 30
0.0
  0
VERTEX
  5
3E88
  8
FACILITY
 10
4889.9843932486046
 20
2932.4999974683319
 30
0.0
  0
VERTEX
  5
3E89
  8
FACILITY
 10
4889.9843932486046
 20
2919.4999974683319
 30
0.0
  0
SEQEND
  5
3E8A
  8
FACILITY
  0
POLYLINE
  5
3BE4
  8
FACILITY
 66
     1
 10
0.0
 20
0.0
 30
0.0
 70
     1
  0
VERTEX
  5
3E8B
  8
FACILITY
 10
4231.4843932486046
 20
2917.9999974683319
 30
0.0
  0
VERTEX
  5
3E8C
  8
FACILITY
 10
4244.4843932486037
 20
2917.9999974683319
 30
0.0
  0
VERTEX
  5
3E8D
  8
FACILITY
 10
4245.9843932486037
 20
2919.4999974683319
 30
0.0
  0
VERTEX
  5
3E8E
  8
FACILITY
 10
4245.9843932486037
 20
2932.4999974683319
 30
0.0
  0
VERTEX
  5
3E8F
  8
FACILITY
 10
4244.4843932486037
 20
2933.9999974683319
 30
0.0
  0
VERTEX
  5
3E90
  8
FACILITY
 10
4231.4843932486046
 20
2933.9999974683319
 30
0.0
  0
VERTEX
  5
3E91
  8
FACILITY
 10
4229.9843932486046
 20
2932.4999974683319
 30
0.0
  0
VERTEX
  5
3E92
  8
FACILITY
 10
4229.9843932486046
 20
2919.4999974683319
 30
0.0
  0
SEQEND
  5
3E93
  8
FACILITY
  0
POLYLINE
  5
3BE5
  8
FACILITY
 66
     1
 10
0.0
 20
0.0
 30
0.0
 70
     1
  0
VERTEX
  5
3E94
  8
FACILITY
 10
3571.4843932486051
 20
2917.9999974683319
 30
0.0
  0
VERTEX
  5
3E95
  8
FACILITY
 10
3584.4843932486051
 20
2917.9999974683319
 30
0.0
  0
VERTEX
  5
3E96
  8
FACILITY
 10
3585.9843932486051
 20
2919.4999974683319
 30
0.0
  0
VERTEX
  5
3E97
  8
FACILITY
 10
3585.9843932486051
 20
2932.4999974683319
 30
0.0
  0
VERTEX
  5
3E98
  8
FACILITY
 10
3584.4843932486051
 20
2933.9999974683319
 30
0.0
  0
VERTEX
  5
3E99
  8
FACILITY
 10
3571.4843932486051
 20
2933.9999974683319
 30
0.0
  0
VERTEX
  5
3E9A
  8
FACILITY
 10
3569.9843932486051
 20
2932.4999974683319
 30
0.0
  0
VERTEX
  5
3E9B
  8
FACILITY
 10
3569.9843932486051
 20
2919.4999974683319
 30
0.0
  0
SEQEND
  5
3E9C
  8
FACILITY
  0
POLYLINE
  5
3BE6
  8
FACILITY
 66
     1
 10
0.0
 20
0.0
 30
0.0
 70
     1
  0
VERTEX
  5
3E9D
  8
FACILITY
 10
2911.4843932486042
 20
2917.9999974683319
 30
0.0
  0
VERTEX
  5
3E9E
  8
FACILITY
 10
2924.4843932486042
 20
2917.9999974683319
 30
0.0
  0
VERTEX
  5
3E9F
  8
FACILITY
 10
2925.9843932486042
 20
2919.4999974683319
 30
0.0
  0
VERTEX
  5
3EA0
  8
FACILITY
 10
2925.9843932486042
 20
2932.4999974683319
 30
0.0
  0
VERTEX
  5
3EA1
  8
FACILITY
 10
2924.4843932486042
 20
2933.9999974683319
 30
0.0
  0
VERTEX
  5
3EA2
  8
FACILITY
 10
2911.4843932486042
 20
2933.9999974683319
 30
0.0
  0
VERTEX
  5
3EA3
  8
FACILITY
 10
2909.9843932486042
 20
2932.4999974683319
 30
0.0
  0
VERTEX
  5
3EA4
  8
FACILITY
 10
2909.9843932486042
 20
2919.4999974683319
 30
0.0
  0
SEQEND
  5
3EA5
  8
FACILITY
  0
POLYLINE
  5
3BE7
  8
FACILITY
 66
     1
 10
0.0
 20
0.0
 30
0.0
 70
     1
  0
VERTEX
  5
3EA6
  8
FACILITY
 10
2881.4843932486042
 20
2917.9999974683319
 30
0.0
  0
VERTEX
  5
3EA7
  8
FACILITY
 10
2894.4843932486051
 20
2917.9999974683319
 30
0.0
  0
VERTEX
  5
3EA8
  8
FACILITY
 10
2895.9843932486051
 20
2919.4999974683319
 30
0.0
  0
VERTEX
  5
3EA9
  8
FACILITY
 10
2895.9843932486051
 20
2932.4999974683319
 30
0.0
  0
VERTEX
  5
3EAA
  8
FACILITY
 10
2894.4843932486051
 20
2933.9999974683319
 30
0.0
  0
VERTEX
  5
3EAB
  8
FACILITY
 10
2881.4843932486042
 20
2933.9999974683319
 30
0.0
  0
VERTEX
  5
3EAC
  8
FACILITY
 10
2879.9843932486051
 20
2932.4999974683319
 30
0.0
  0
VERTEX
  5
3EAD
  8
FACILITY
 10
2879.9843932486051
 20
2919.4999974683319
 30
0.0
  0
SEQEND
  5
3EAE
  8
FACILITY
  0
POLYLINE
  5
3BE8
  8
FACILITY
 66
     1
 10
0.0
 20
0.0
 30
0.0
 70
     1
  0
VERTEX
  5
3EAF
  8
FACILITY
 10
7561.4843932486046
 20
2383.9999974683328
 30
0.0
  0
VERTEX
  5
3EB0
  8
FACILITY
 10
7574.4843932486046
 20
2383.9999974683328
 30
0.0
  0
VERTEX
  5
3EB1
  8
FACILITY
 10
7575.9843932486046
 20
2385.4999974683319
 30
0.0
  0
VERTEX
  5
3EB2
  8
FACILITY
 10
7575.9843932486046
 20
2398.4999974683319
 30
0.0
  0
VERTEX
  5
3EB3
  8
FACILITY
 10
7574.4843932486046
 20
2399.9999974683328
 30
0.0
  0
VERTEX
  5
3EB4
  8
FACILITY
 10
7561.4843932486046
 20
2399.9999974683328
 30
0.0
  0
VERTEX
  5
3EB5
  8
FACILITY
 10
7559.9843932486046
 20
2398.4999974683319
 30
0.0
  0
VERTEX
  5
3EB6
  8
FACILITY
 10
7559.9843932486046
 20
2385.4999974683319
 30
0.0
  0
SEQEND
  5
3EB7
  8
FACILITY
  0
POLYLINE
  5
3BE9
  8
FACILITY
 66
     1
 10
0.0
 20
0.0
 30
0.0
 70
     1
  0
VERTEX
  5
3EB8
  8
FACILITY
 10
6901.4843932486046
 20
2383.9999974683328
 30
0.0
  0
VERTEX
  5
3EB9
  8
FACILITY
 10
6914.4843932486046
 20
2383.9999974683328
 30
0.0
  0
VERTEX
  5
3EBA
  8
FACILITY
 10
6915.9843932486056
 20
2385.4999974683319
 30
0.0
  0
VERTEX
  5
3EBB
  8
FACILITY
 10
6915.9843932486056
 20
2398.4999974683319
 30
0.0
  0
VERTEX
  5
3EBC
  8
FACILITY
 10
6914.4843932486046
 20
2399.9999974683328
 30
0.0
  0
VERTEX
  5
3EBD
  8
FACILITY
 10
6901.4843932486046
 20
2399.9999974683328
 30
0.0
  0
VERTEX
  5
3EBE
  8
FACILITY
 10
6899.9843932486046
 20
2398.4999974683319
 30
0.0
  0
VERTEX
  5
3EBF
  8
FACILITY
 10
6899.9843932486046
 20
2385.4999974683319
 30
0.0
  0
SEQEND
  5
3EC0
  8
FACILITY
  0
POLYLINE
  5
3BEA
  8
FACILITY
 66
     1
 10
0.0
 20
0.0
 30
0.0
 70
     1
  0
VERTEX
  5
3EC1
  8
FACILITY
 10
6241.4843932486046
 20
2383.9999974683328
 30
0.0
  0
VERTEX
  5
3EC2
  8
FACILITY
 10
6254.4843932486037
 20
2383.9999974683328
 30
0.0
  0
VERTEX
  5
3EC3
  8
FACILITY
 10
6255.9843932486046
 20
2385.4999974683319
 30
0.0
  0
VERTEX
  5
3EC4
  8
FACILITY
 10
6255.9843932486046
 20
2398.4999974683319
 30
0.0
  0
VERTEX
  5
3EC5
  8
FACILITY
 10
6254.4843932486037
 20
2399.9999974683328
 30
0.0
  0
VERTEX
  5
3EC6
  8
FACILITY
 10
6241.4843932486046
 20
2399.9999974683328
 30
0.0
  0
VERTEX
  5
3EC7
  8
FACILITY
 10
6239.9843932486037
 20
2398.4999974683319
 30
0.0
  0
VERTEX
  5
3EC8
  8
FACILITY
 10
6239.9843932486037
 20
2385.4999974683319
 30
0.0
  0
SEQEND
  5
3EC9
  8
FACILITY
  0
POLYLINE
  5
3BEB
  8
FACILITY
 66
     1
 10
0.0
 20
0.0
 30
0.0
 70
     1
  0
VERTEX
  5
3ECA
  8
FACILITY
 10
6211.4843932486037
 20
2383.9999974683328
 30
0.0
  0
VERTEX
  5
3ECB
  8
FACILITY
 10
6224.4843932486046
 20
2383.9999974683328
 30
0.0
  0
VERTEX
  5
3ECC
  8
FACILITY
 10
6225.9843932486046
 20
2385.4999974683319
 30
0.0
  0
VERTEX
  5
3ECD
  8
FACILITY
 10
6225.9843932486046
 20
2398.4999974683319
 30
0.0
  0
VERTEX
  5
3ECE
  8
FACILITY
 10
6224.4843932486046
 20
2399.9999974683328
 30
0.0
  0
VERTEX
  5
3ECF
  8
FACILITY
 10
6211.4843932486037
 20
2399.9999974683328
 30
0.0
  0
VERTEX
  5
3ED0
  8
FACILITY
 10
6209.9843932486037
 20
2398.4999974683319
 30
0.0
  0
VERTEX
  5
3ED1
  8
FACILITY
 10
6209.9843932486037
 20
2385.4999974683319
 30
0.0
  0
SEQEND
  5
3ED2
  8
FACILITY
  0
POLYLINE
  5
3BEC
  8
FACILITY
 66
     1
 10
0.0
 20
0.0
 30
0.0
 70
     1
  0
VERTEX
  5
3ED3
  8
FACILITY
 10
5551.4843932486037
 20
2383.9999974683328
 30
0.0
  0
VERTEX
  5
3ED4
  8
FACILITY
 10
5564.4843932486046
 20
2383.9999974683328
 30
0.0
  0
VERTEX
  5
3ED5
  8
FACILITY
 10
5565.9843932486046
 20
2385.4999974683319
 30
0.0
  0
VERTEX
  5
3ED6
  8
FACILITY
 10
5565.9843932486046
 20
2398.4999974683319
 30
0.0
  0
VERTEX
  5
3ED7
  8
FACILITY
 10
5564.4843932486046
 20
2399.9999974683328
 30
0.0
  0
VERTEX
  5
3ED8
  8
FACILITY
 10
5551.4843932486037
 20
2399.9999974683328
 30
0.0
  0
VERTEX
  5
3ED9
  8
FACILITY
 10
5549.9843932486037
 20
2398.4999974683319
 30
0.0
  0
VERTEX
  5
3EDA
  8
FACILITY
 10
5549.9843932486037
 20
2385.4999974683319
 30
0.0
  0
SEQEND
  5
3EDB
  8
FACILITY
  0
POLYLINE
  5
3BED
  8
FACILITY
 66
     1
 10
0.0
 20
0.0
 30
0.0
 70
     1
  0
VERTEX
  5
3EDC
  8
FACILITY
 10
4891.4843932486046
 20
2383.9999974683328
 30
0.0
  0
VERTEX
  5
3EDD
  8
FACILITY
 10
4904.4843932486046
 20
2383.9999974683328
 30
0.0
  0
VERTEX
  5
3EDE
  8
FACILITY
 10
4905.9843932486046
 20
2385.4999974683319
 30
0.0
  0
VERTEX
  5
3EDF
  8
FACILITY
 10
4905.9843932486046
 20
2398.4999974683319
 30
0.0
  0
VERTEX
  5
3EE0
  8
FACILITY
 10
4904.4843932486046
 20
2399.9999974683328
 30
0.0
  0
VERTEX
  5
3EE1
  8
FACILITY
 10
4891.4843932486046
 20
2399.9999974683328
 30
0.0
  0
VERTEX
  5
3EE2
  8
FACILITY
 10
4889.9843932486046
 20
2398.4999974683319
 30
0.0
  0
VERTEX
  5
3EE3
  8
FACILITY
 10
4889.9843932486046
 20
2385.4999974683319
 30
0.0
  0
SEQEND
  5
3EE4
  8
FACILITY
  0
POLYLINE
  5
3BEE
  8
FACILITY
 66
     1
 10
0.0
 20
0.0
 30
0.0
 70
     1
  0
VERTEX
  5
3EE5
  8
FACILITY
 10
4231.4843932486046
 20
2383.9999974683328
 30
0.0
  0
VERTEX
  5
3EE6
  8
FACILITY
 10
4244.4843932486037
 20
2383.9999974683328
 30
0.0
  0
VERTEX
  5
3EE7
  8
FACILITY
 10
4245.9843932486037
 20
2385.4999974683319
 30
0.0
  0
VERTEX
  5
3EE8
  8
FACILITY
 10
4245.9843932486037
 20
2398.4999974683319
 30
0.0
  0
VERTEX
  5
3EE9
  8
FACILITY
 10
4244.4843932486037
 20
2399.9999974683328
 30
0.0
  0
VERTEX
  5
3EEA
  8
FACILITY
 10
4231.4843932486046
 20
2399.9999974683328
 30
0.0
  0
VERTEX
  5
3EEB
  8
FACILITY
 10
4229.9843932486046
 20
2398.4999974683319
 30
0.0
  0
VERTEX
  5
3EEC
  8
FACILITY
 10
4229.9843932486046
 20
2385.4999974683319
 30
0.0
  0
SEQEND
  5
3EED
  8
FACILITY
  0
POLYLINE
  5
3BEF
  8
FACILITY
 66
     1
 10
0.0
 20
0.0
 30
0.0
 70
     1
  0
VERTEX
  5
3EEE
  8
FACILITY
 10
3571.4843932486051
 20
2383.9999974683328
 30
0.0
  0
VERTEX
  5
3EEF
  8
FACILITY
 10
3584.4843932486051
 20
2383.9999974683328
 30
0.0
  0
VERTEX
  5
3EF0
  8
FACILITY
 10
3585.9843932486051
 20
2385.4999974683319
 30
0.0
  0
VERTEX
  5
3EF1
  8
FACILITY
 10
3585.9843932486051
 20
2398.4999974683319
 30
0.0
  0
VERTEX
  5
3EF2
  8
FACILITY
 10
3584.4843932486051
 20
2399.9999974683328
 30
0.0
  0
VERTEX
  5
3EF3
  8
FACILITY
 10
3571.4843932486051
 20
2399.9999974683328
 30
0.0
  0
VERTEX
  5
3EF4
  8
FACILITY
 10
3569.9843932486051
 20
2398.4999974683319
 30
0.0
  0
VERTEX
  5
3EF5
  8
FACILITY
 10
3569.9843932486051
 20
2385.4999974683319
 30
0.0
  0
SEQEND
  5
3EF6
  8
FACILITY
  0
POLYLINE
  5
3BF0
  8
FACILITY
 66
     1
 10
0.0
 20
0.0
 30
0.0
 70
     1
  0
VERTEX
  5
3EF7
  8
FACILITY
 10
2911.4843932486042
 20
2383.9999974683328
 30
0.0
  0
VERTEX
  5
3EF8
  8
FACILITY
 10
2924.4843932486042
 20
2383.9999974683328
 30
0.0
  0
VERTEX
  5
3EF9
  8
FACILITY
 10
2925.9843932486042
 20
2385.4999974683319
 30
0.0
  0
VERTEX
  5
3EFA
  8
FACILITY
 10
2925.9843932486042
 20
2398.4999974683319
 30
0.0
  0
VERTEX
  5
3EFB
  8
FACILITY
 10
2924.4843932486042
 20
2399.9999974683328
 30
0.0
  0
VERTEX
  5
3EFC
  8
FACILITY
 10
2911.4843932486042
 20
2399.9999974683328
 30
0.0
  0
VERTEX
  5
3EFD
  8
FACILITY
 10
2909.9843932486042
 20
2398.4999974683319
 30
0.0
  0
VERTEX
  5
3EFE
  8
FACILITY
 10
2909.9843932486042
 20
2385.4999974683319
 30
0.0
  0
SEQEND
  5
3EFF
  8
FACILITY
  0
POLYLINE
  5
3BF1
  8
FACILITY
 66
     1
 10
0.0
 20
0.0
 30
0.0
 70
     1
  0
VERTEX
  5
3F00
  8
FACILITY
 10
2881.4843932486042
 20
2383.9999974683328
 30
0.0
  0
VERTEX
  5
3F01
  8
FACILITY
 10
2894.4843932486051
 20
2383.9999974683328
 30
0.0
  0
VERTEX
  5
3F02
  8
FACILITY
 10
2895.9843932486051
 20
2385.4999974683319
 30
0.0
  0
VERTEX
  5
3F03
  8
FACILITY
 10
2895.9843932486051
 20
2398.4999974683319
 30
0.0
  0
VERTEX
  5
3F04
  8
FACILITY
 10
2894.4843932486051
 20
2399.9999974683328
 30
0.0
  0
VERTEX
  5
3F05
  8
FACILITY
 10
2881.4843932486042
 20
2399.9999974683328
 30
0.0
  0
VERTEX
  5
3F06
  8
FACILITY
 10
2879.9843932486051
 20
2398.4999974683319
 30
0.0
  0
VERTEX
  5
3F07
  8
FACILITY
 10
2879.9843932486051
 20
2385.4999974683319
 30
0.0
  0
SEQEND
  5
3F08
  8
FACILITY
  0
POLYLINE
  5
3BF2
  8
FACILITY
 66
     1
 10
0.0
 20
0.0
 30
0.0
 70
     1
  0
VERTEX
  5
3F09
  8
FACILITY
 10
2221.4843932486051
 20
2383.9999974683328
 30
0.0
  0
VERTEX
  5
3F0A
  8
FACILITY
 10
2234.4843932486042
 20
2383.9999974683328
 30
0.0
  0
VERTEX
  5
3F0B
  8
FACILITY
 10
2235.9843932486042
 20
2385.4999974683319
 30
0.0
  0
VERTEX
  5
3F0C
  8
FACILITY
 10
2235.9843932486042
 20
2398.4999974683319
 30
0.0
  0
VERTEX
  5
3F0D
  8
FACILITY
 10
2234.4843932486042
 20
2399.9999974683328
 30
0.0
  0
VERTEX
  5
3F0E
  8
FACILITY
 10
2221.4843932486051
 20
2399.9999974683328
 30
0.0
  0
VERTEX
  5
3F0F
  8
FACILITY
 10
2219.9843932486042
 20
2398.4999974683319
 30
0.0
  0
VERTEX
  5
3F10
  8
FACILITY
 10
2219.9843932486042
 20
2385.4999974683319
 30
0.0
  0
SEQEND
  5
3F11
  8
FACILITY
  0
POLYLINE
  5
3BF3
  8
FACILITY
 66
     1
 10
0.0
 20
0.0
 30
0.0
 70
     1
  0
VERTEX
  5
3F12
  8
FACILITY
 10
7561.4843932486046
 20
1849.999997468333
 30
0.0
  0
VERTEX
  5
3F13
  8
FACILITY
 10
7574.4843932486046
 20
1849.999997468333
 30
0.0
  0
VERTEX
  5
3F14
  8
FACILITY
 10
7575.9843932486046
 20
1851.4999974683319
 30
0.0
  0
VERTEX
  5
3F15
  8
FACILITY
 10
7575.9843932486046
 20
1864.499997468333
 30
0.0
  0
VERTEX
  5
3F16
  8
FACILITY
 10
7574.4843932486046
 20
1865.9999974683319
 30
0.0
  0
VERTEX
  5
3F17
  8
FACILITY
 10
7561.4843932486046
 20
1865.9999974683319
 30
0.0
  0
VERTEX
  5
3F18
  8
FACILITY
 10
7559.9843932486046
 20
1864.499997468333
 30
0.0
  0
VERTEX
  5
3F19
  8
FACILITY
 10
7559.9843932486046
 20
1851.4999974683319
 30
0.0
  0
SEQEND
  5
3F1A
  8
FACILITY
  0
POLYLINE
  5
3BF4
  8
FACILITY
 66
     1
 10
0.0
 20
0.0
 30
0.0
 70
     1
  0
VERTEX
  5
3F1B
  8
FACILITY
 10
6901.4843932486046
 20
1849.999997468333
 30
0.0
  0
VERTEX
  5
3F1C
  8
FACILITY
 10
6914.4843932486046
 20
1849.999997468333
 30
0.0
  0
VERTEX
  5
3F1D
  8
FACILITY
 10
6915.9843932486056
 20
1851.4999974683319
 30
0.0
  0
VERTEX
  5
3F1E
  8
FACILITY
 10
6915.9843932486056
 20
1864.499997468333
 30
0.0
  0
VERTEX
  5
3F1F
  8
FACILITY
 10
6914.4843932486046
 20
1865.9999974683319
 30
0.0
  0
VERTEX
  5
3F20
  8
FACILITY
 10
6901.4843932486046
 20
1865.9999974683319
 30
0.0
  0
VERTEX
  5
3F21
  8
FACILITY
 10
6899.9843932486046
 20
1864.499997468333
 30
0.0
  0
VERTEX
  5
3F22
  8
FACILITY
 10
6899.9843932486046
 20
1851.4999974683319
 30
0.0
  0
SEQEND
  5
3F23
  8
FACILITY
  0
POLYLINE
  5
3BF5
  8
FACILITY
 66
     1
 10
0.0
 20
0.0
 30
0.0
 70
     1
  0
VERTEX
  5
3F24
  8
FACILITY
 10
6241.4843932486046
 20
1849.999997468333
 30
0.0
  0
VERTEX
  5
3F25
  8
FACILITY
 10
6254.4843932486037
 20
1849.999997468333
 30
0.0
  0
VERTEX
  5
3F26
  8
FACILITY
 10
6255.9843932486046
 20
1851.4999974683319
 30
0.0
  0
VERTEX
  5
3F27
  8
FACILITY
 10
6255.9843932486046
 20
1864.499997468333
 30
0.0
  0
VERTEX
  5
3F28
  8
FACILITY
 10
6254.4843932486037
 20
1865.9999974683319
 30
0.0
  0
VERTEX
  5
3F29
  8
FACILITY
 10
6241.4843932486046
 20
1865.9999974683319
 30
0.0
  0
VERTEX
  5
3F2A
  8
FACILITY
 10
6239.9843932486037
 20
1864.499997468333
 30
0.0
  0
VERTEX
  5
3F2B
  8
FACILITY
 10
6239.9843932486037
 20
1851.4999974683319
 30
0.0
  0
SEQEND
  5
3F2C
  8
FACILITY
  0
POLYLINE
  5
3BF6
  8
FACILITY
 66
     1
 10
0.0
 20
0.0
 30
0.0
 70
     1
  0
VERTEX
  5
3F2D
  8
FACILITY
 10
6211.4843932486037
 20
1849.999997468333
 30
0.0
  0
VERTEX
  5
3F2E
  8
FACILITY
 10
6224.4843932486046
 20
1849.999997468333
 30
0.0
  0
VERTEX
  5
3F2F
  8
FACILITY
 10
6225.9843932486046
 20
1851.4999974683319
 30
0.0
  0
VERTEX
  5
3F30
  8
FACILITY
 10
6225.9843932486046
 20
1864.499997468333
 30
0.0
  0
VERTEX
  5
3F31
  8
FACILITY
 10
6224.4843932486046
 20
1865.9999974683319
 30
0.0
  0
VERTEX
  5
3F32
  8
FACILITY
 10
6211.4843932486037
 20
1865.9999974683319
 30
0.0
  0
VERTEX
  5
3F33
  8
FACILITY
 10
6209.9843932486037
 20
1864.499997468333
 30
0.0
  0
VERTEX
  5
3F34
  8
FACILITY
 10
6209.9843932486037
 20
1851.4999974683319
 30
0.0
  0
SEQEND
  5
3F35
  8
FACILITY
  0
POLYLINE
  5
3BF7
  8
FACILITY
 66
     1
 10
0.0
 20
0.0
 30
0.0
 70
     1
  0
VERTEX
  5
3F36
  8
FACILITY
 10
5551.4843932486037
 20
1849.999997468333
 30
0.0
  0
VERTEX
  5
3F37
  8
FACILITY
 10
5564.4843932486046
 20
1849.999997468333
 30
0.0
  0
VERTEX
  5
3F38
  8
FACILITY
 10
5565.9843932486046
 20
1851.4999974683319
 30
0.0
  0
VERTEX
  5
3F39
  8
FACILITY
 10
5565.9843932486046
 20
1864.499997468333
 30
0.0
  0
VERTEX
  5
3F3A
  8
FACILITY
 10
5564.4843932486046
 20
1865.9999974683319
 30
0.0
  0
VERTEX
  5
3F3B
  8
FACILITY
 10
5551.4843932486037
 20
1865.9999974683319
 30
0.0
  0
VERTEX
  5
3F3C
  8
FACILITY
 10
5549.9843932486037
 20
1864.499997468333
 30
0.0
  0
VERTEX
  5
3F3D
  8
FACILITY
 10
5549.9843932486037
 20
1851.4999974683319
 30
0.0
  0
SEQEND
  5
3F3E
  8
FACILITY
  0
POLYLINE
  5
3BF8
  8
FACILITY
 66
     1
 10
0.0
 20
0.0
 30
0.0
 70
     1
  0
VERTEX
  5
3F3F
  8
FACILITY
 10
4891.4843932486046
 20
1849.999997468333
 30
0.0
  0
VERTEX
  5
3F40
  8
FACILITY
 10
4904.4843932486046
 20
1849.999997468333
 30
0.0
  0
VERTEX
  5
3F41
  8
FACILITY
 10
4905.9843932486046
 20
1851.4999974683319
 30
0.0
  0
VERTEX
  5
3F42
  8
FACILITY
 10
4905.9843932486046
 20
1864.499997468333
 30
0.0
  0
VERTEX
  5
3F43
  8
FACILITY
 10
4904.4843932486046
 20
1865.9999974683319
 30
0.0
  0
VERTEX
  5
3F44
  8
FACILITY
 10
4891.4843932486046
 20
1865.9999974683319
 30
0.0
  0
VERTEX
  5
3F45
  8
FACILITY
 10
4889.9843932486046
 20
1864.499997468333
 30
0.0
  0
VERTEX
  5
3F46
  8
FACILITY
 10
4889.9843932486046
 20
1851.4999974683319
 30
0.0
  0
SEQEND
  5
3F47
  8
FACILITY
  0
POLYLINE
  5
3BF9
  8
FACILITY
 66
     1
 10
0.0
 20
0.0
 30
0.0
 70
     1
  0
VERTEX
  5
3F48
  8
FACILITY
 10
4231.4843932486046
 20
1849.999997468333
 30
0.0
  0
VERTEX
  5
3F49
  8
FACILITY
 10
4244.4843932486037
 20
1849.999997468333
 30
0.0
  0
VERTEX
  5
3F4A
  8
FACILITY
 10
4245.9843932486037
 20
1851.4999974683319
 30
0.0
  0
VERTEX
  5
3F4B
  8
FACILITY
 10
4245.9843932486037
 20
1864.499997468333
 30
0.0
  0
VERTEX
  5
3F4C
  8
FACILITY
 10
4244.4843932486037
 20
1865.9999974683319
 30
0.0
  0
VERTEX
  5
3F4D
  8
FACILITY
 10
4231.4843932486046
 20
1865.9999974683319
 30
0.0
  0
VERTEX
  5
3F4E
  8
FACILITY
 10
4229.9843932486046
 20
1864.499997468333
 30
0.0
  0
VERTEX
  5
3F4F
  8
FACILITY
 10
4229.9843932486046
 20
1851.4999974683319
 30
0.0
  0
SEQEND
  5
3F50
  8
FACILITY
  0
POLYLINE
  5
3BFA
  8
FACILITY
 66
     1
 10
0.0
 20
0.0
 30
0.0
 70
     1
  0
VERTEX
  5
3F51
  8
FACILITY
 10
3571.4843932486051
 20
1849.999997468333
 30
0.0
  0
VERTEX
  5
3F52
  8
FACILITY
 10
3584.4843932486051
 20
1849.999997468333
 30
0.0
  0
VERTEX
  5
3F53
  8
FACILITY
 10
3585.9843932486051
 20
1851.4999974683319
 30
0.0
  0
VERTEX
  5
3F54
  8
FACILITY
 10
3585.9843932486051
 20
1864.499997468333
 30
0.0
  0
VERTEX
  5
3F55
  8
FACILITY
 10
3584.4843932486051
 20
1865.9999974683319
 30
0.0
  0
VERTEX
  5
3F56
  8
FACILITY
 10
3571.4843932486051
 20
1865.9999974683319
 30
0.0
  0
VERTEX
  5
3F57
  8
FACILITY
 10
3569.9843932486051
 20
1864.499997468333
 30
0.0
  0
VERTEX
  5
3F58
  8
FACILITY
 10
3569.9843932486051
 20
1851.4999974683319
 30
0.0
  0
SEQEND
  5
3F59
  8
FACILITY
  0
POLYLINE
  5
3BFB
  8
FACILITY
 66
     1
 10
0.0
 20
0.0
 30
0.0
 70
     1
  0
VERTEX
  5
3F5A
  8
FACILITY
 10
2911.4843932486042
 20
1849.999997468333
 30
0.0
  0
VERTEX
  5
3F5B
  8
FACILITY
 10
2924.4843932486042
 20
1849.999997468333
 30
0.0
  0
VERTEX
  5
3F5C
  8
FACILITY
 10
2925.9843932486042
 20
1851.4999974683319
 30
0.0
  0
VERTEX
  5
3F5D
  8
FACILITY
 10
2925.9843932486042
 20
1864.499997468333
 30
0.0
  0
VERTEX
  5
3F5E
  8
FACILITY
 10
2924.4843932486042
 20
1865.9999974683319
 30
0.0
  0
VERTEX
  5
3F5F
  8
FACILITY
 10
2911.4843932486042
 20
1865.9999974683319
 30
0.0
  0
VERTEX
  5
3F60
  8
FACILITY
 10
2909.9843932486042
 20
1864.499997468333
 30
0.0
  0
VERTEX
  5
3F61
  8
FACILITY
 10
2909.9843932486042
 20
1851.4999974683319
 30
0.0
  0
SEQEND
  5
3F62
  8
FACILITY
  0
POLYLINE
  5
3BFC
  8
FACILITY
 66
     1
 10
0.0
 20
0.0
 30
0.0
 70
     1
  0
VERTEX
  5
3F63
  8
FACILITY
 10
2881.4843932486042
 20
1849.999997468333
 30
0.0
  0
VERTEX
  5
3F64
  8
FACILITY
 10
2894.4843932486051
 20
1849.999997468333
 30
0.0
  0
VERTEX
  5
3F65
  8
FACILITY
 10
2895.9843932486051
 20
1851.4999974683319
 30
0.0
  0
VERTEX
  5
3F66
  8
FACILITY
 10
2895.9843932486051
 20
1864.499997468333
 30
0.0
  0
VERTEX
  5
3F67
  8
FACILITY
 10
2894.4843932486051
 20
1865.9999974683319
 30
0.0
  0
VERTEX
  5
3F68
  8
FACILITY
 10
2881.4843932486042
 20
1865.9999974683319
 30
0.0
  0
VERTEX
  5
3F69
  8
FACILITY
 10
2879.9843932486051
 20
1864.499997468333
 30
0.0
  0
VERTEX
  5
3F6A
  8
FACILITY
 10
2879.9843932486051
 20
1851.4999974683319
 30
0.0
  0
SEQEND
  5
3F6B
  8
FACILITY
  0
POLYLINE
  5
3BFD
  8
FACILITY
 66
     1
 10
0.0
 20
0.0
 30
0.0
 70
     1
  0
VERTEX
  5
3F6C
  8
FACILITY
 10
2221.4843932486051
 20
1849.999997468333
 30
0.0
  0
VERTEX
  5
3F6D
  8
FACILITY
 10
2234.4843932486042
 20
1849.999997468333
 30
0.0
  0
VERTEX
  5
3F6E
  8
FACILITY
 10
2235.9843932486042
 20
1851.4999974683319
 30
0.0
  0
VERTEX
  5
3F6F
  8
FACILITY
 10
2235.9843932486042
 20
1864.499997468333
 30
0.0
  0
VERTEX
  5
3F70
  8
FACILITY
 10
2234.4843932486042
 20
1865.9999974683319
 30
0.0
  0
VERTEX
  5
3F71
  8
FACILITY
 10
2221.4843932486051
 20
1865.9999974683319
 30
0.0
  0
VERTEX
  5
3F72
  8
FACILITY
 10
2219.9843932486042
 20
1864.499997468333
 30
0.0
  0
VERTEX
  5
3F73
  8
FACILITY
 10
2219.9843932486042
 20
1851.4999974683319
 30
0.0
  0
SEQEND
  5
3F74
  8
FACILITY
  0
POLYLINE
  5
3BFE
  8
FACILITY
 66
     1
 10
0.0
 20
0.0
 30
0.0
 70
     1
  0
VERTEX
  5
3F75
  8
FACILITY
 10
1561.484393248604
 20
1849.999997468333
 30
0.0
  0
VERTEX
  5
3F76
  8
FACILITY
 10
1574.484393248604
 20
1849.999997468333
 30
0.0
  0
VERTEX
  5
3F77
  8
FACILITY
 10
1575.984393248604
 20
1851.4999974683319
 30
0.0
  0
VERTEX
  5
3F78
  8
FACILITY
 10
1575.984393248604
 20
1864.499997468333
 30
0.0
  0
VERTEX
  5
3F79
  8
FACILITY
 10
1574.484393248604
 20
1865.9999974683319
 30
0.0
  0
VERTEX
  5
3F7A
  8
FACILITY
 10
1561.484393248604
 20
1865.9999974683319
 30
0.0
  0
VERTEX
  5
3F7B
  8
FACILITY
 10
1559.984393248604
 20
1864.499997468333
 30
0.0
  0
VERTEX
  5
3F7C
  8
FACILITY
 10
1559.984393248604
 20
1851.4999974683319
 30
0.0
  0
SEQEND
  5
3F7D
  8
FACILITY
  0
POLYLINE
  5
3BFF
  8
FACILITY
 66
     1
 10
0.0
 20
0.0
 30
0.0
 70
     1
  0
VERTEX
  5
3F7E
  8
FACILITY
 10
7561.4843932486046
 20
1315.9999974683319
 30
0.0
  0
VERTEX
  5
3F7F
  8
FACILITY
 10
7574.4843932486046
 20
1315.9999974683319
 30
0.0
  0
VERTEX
  5
3F80
  8
FACILITY
 10
7575.9843932486046
 20
1317.499997468333
 30
0.0
  0
VERTEX
  5
3F81
  8
FACILITY
 10
7575.9843932486046
 20
1330.4999974683319
 30
0.0
  0
VERTEX
  5
3F82
  8
FACILITY
 10
7574.4843932486046
 20
1331.9999974683319
 30
0.0
  0
VERTEX
  5
3F83
  8
FACILITY
 10
7561.4843932486046
 20
1331.9999974683319
 30
0.0
  0
VERTEX
  5
3F84
  8
FACILITY
 10
7559.9843932486046
 20
1330.4999974683319
 30
0.0
  0
VERTEX
  5
3F85
  8
FACILITY
 10
7559.9843932486046
 20
1317.499997468333
 30
0.0
  0
SEQEND
  5
3F86
  8
FACILITY
  0
POLYLINE
  5
3C00
  8
FACILITY
 66
     1
 10
0.0
 20
0.0
 30
0.0
 70
     1
  0
VERTEX
  5
3F87
  8
FACILITY
 10
6901.4843932486046
 20
1315.9999974683319
 30
0.0
  0
VERTEX
  5
3F88
  8
FACILITY
 10
6914.4843932486046
 20
1315.9999974683319
 30
0.0
  0
VERTEX
  5
3F89
  8
FACILITY
 10
6915.9843932486056
 20
1317.499997468333
 30
0.0
  0
VERTEX
  5
3F8A
  8
FACILITY
 10
6915.9843932486056
 20
1330.4999974683319
 30
0.0
  0
VERTEX
  5
3F8B
  8
FACILITY
 10
6914.4843932486046
 20
1331.9999974683319
 30
0.0
  0
VERTEX
  5
3F8C
  8
FACILITY
 10
6901.4843932486046
 20
1331.9999974683319
 30
0.0
  0
VERTEX
  5
3F8D
  8
FACILITY
 10
6899.9843932486046
 20
1330.4999974683319
 30
0.0
  0
VERTEX
  5
3F8E
  8
FACILITY
 10
6899.9843932486046
 20
1317.499997468333
 30
0.0
  0
SEQEND
  5
3F8F
  8
FACILITY
  0
POLYLINE
  5
3C01
  8
FACILITY
 66
     1
 10
0.0
 20
0.0
 30
0.0
 70
     1
  0
VERTEX
  5
3F90
  8
FACILITY
 10
6241.4843932486046
 20
1315.9999974683319
 30
0.0
  0
VERTEX
  5
3F91
  8
FACILITY
 10
6254.4843932486037
 20
1315.9999974683319
 30
0.0
  0
VERTEX
  5
3F92
  8
FACILITY
 10
6255.9843932486046
 20
1317.499997468333
 30
0.0
  0
VERTEX
  5
3F93
  8
FACILITY
 10
6255.9843932486046
 20
1330.4999974683319
 30
0.0
  0
VERTEX
  5
3F94
  8
FACILITY
 10
6254.4843932486037
 20
1331.9999974683319
 30
0.0
  0
VERTEX
  5
3F95
  8
FACILITY
 10
6241.4843932486046
 20
1331.9999974683319
 30
0.0
  0
VERTEX
  5
3F96
  8
FACILITY
 10
6239.9843932486037
 20
1330.4999974683319
 30
0.0
  0
VERTEX
  5
3F97
  8
FACILITY
 10
6239.9843932486037
 20
1317.499997468333
 30
0.0
  0
SEQEND
  5
3F98
  8
FACILITY
  0
POLYLINE
  5
3C02
  8
FACILITY
 66
     1
 10
0.0
 20
0.0
 30
0.0
 70
     1
  0
VERTEX
  5
3F99
  8
FACILITY
 10
6211.4843932486037
 20
1315.9999974683319
 30
0.0
  0
VERTEX
  5
3F9A
  8
FACILITY
 10
6224.4843932486046
 20
1315.9999974683319
 30
0.0
  0
VERTEX
  5
3F9B
  8
FACILITY
 10
6225.9843932486046
 20
1317.499997468333
 30
0.0
  0
VERTEX
  5
3F9C
  8
FACILITY
 10
6225.9843932486046
 20
1330.4999974683319
 30
0.0
  0
VERTEX
  5
3F9D
  8
FACILITY
 10
6224.4843932486046
 20
1331.9999974683319
 30
0.0
  0
VERTEX
  5
3F9E
  8
FACILITY
 10
6211.4843932486037
 20
1331.9999974683319
 30
0.0
  0
VERTEX
  5
3F9F
  8
FACILITY
 10
6209.9843932486037
 20
1330.4999974683319
 30
0.0
  0
VERTEX
  5
3FA0
  8
FACILITY
 10
6209.9843932486037
 20
1317.499997468333
 30
0.0
  0
SEQEND
  5
3FA1
  8
FACILITY
  0
POLYLINE
  5
3C03
  8
FACILITY
 66
     1
 10
0.0
 20
0.0
 30
0.0
 70
     1
  0
VERTEX
  5
3FA2
  8
FACILITY
 10
5551.4843932486037
 20
1315.9999974683319
 30
0.0
  0
VERTEX
  5
3FA3
  8
FACILITY
 10
5564.4843932486046
 20
1315.9999974683319
 30
0.0
  0
VERTEX
  5
3FA4
  8
FACILITY
 10
5565.9843932486046
 20
1317.499997468333
 30
0.0
  0
VERTEX
  5
3FA5
  8
FACILITY
 10
5565.9843932486046
 20
1330.4999974683319
 30
0.0
  0
VERTEX
  5
3FA6
  8
FACILITY
 10
5564.4843932486046
 20
1331.9999974683319
 30
0.0
  0
VERTEX
  5
3FA7
  8
FACILITY
 10
5551.4843932486037
 20
1331.9999974683319
 30
0.0
  0
VERTEX
  5
3FA8
  8
FACILITY
 10
5549.9843932486037
 20
1330.4999974683319
 30
0.0
  0
VERTEX
  5
3FA9
  8
FACILITY
 10
5549.9843932486037
 20
1317.499997468333
 30
0.0
  0
SEQEND
  5
3FAA
  8
FACILITY
  0
POLYLINE
  5
3C04
  8
FACILITY
 66
     1
 10
0.0
 20
0.0
 30
0.0
 70
     1
  0
VERTEX
  5
3FAB
  8
FACILITY
 10
4891.4843932486046
 20
1315.9999974683319
 30
0.0
  0
VERTEX
  5
3FAC
  8
FACILITY
 10
4904.4843932486046
 20
1315.9999974683319
 30
0.0
  0
VERTEX
  5
3FAD
  8
FACILITY
 10
4905.9843932486046
 20
1317.499997468333
 30
0.0
  0
VERTEX
  5
3FAE
  8
FACILITY
 10
4905.9843932486046
 20
1330.4999974683319
 30
0.0
  0
VERTEX
  5
3FAF
  8
FACILITY
 10
4904.4843932486046
 20
1331.9999974683319
 30
0.0
  0
VERTEX
  5
3FB0
  8
FACILITY
 10
4891.4843932486046
 20
1331.9999974683319
 30
0.0
  0
VERTEX
  5
3FB1
  8
FACILITY
 10
4889.9843932486046
 20
1330.4999974683319
 30
0.0
  0
VERTEX
  5
3FB2
  8
FACILITY
 10
4889.9843932486046
 20
1317.499997468333
 30
0.0
  0
SEQEND
  5
3FB3
  8
FACILITY
  0
POLYLINE
  5
3C05
  8
FACILITY
 66
     1
 10
0.0
 20
0.0
 30
0.0
 70
     1
  0
VERTEX
  5
3FB4
  8
FACILITY
 10
4231.4843932486046
 20
1315.9999974683319
 30
0.0
  0
VERTEX
  5
3FB5
  8
FACILITY
 10
4244.4843932486037
 20
1315.9999974683319
 30
0.0
  0
VERTEX
  5
3FB6
  8
FACILITY
 10
4245.9843932486037
 20
1317.499997468333
 30
0.0
  0
VERTEX
  5
3FB7
  8
FACILITY
 10
4245.9843932486037
 20
1330.4999974683319
 30
0.0
  0
VERTEX
  5
3FB8
  8
FACILITY
 10
4244.4843932486037
 20
1331.9999974683319
 30
0.0
  0
VERTEX
  5
3FB9
  8
FACILITY
 10
4231.4843932486046
 20
1331.9999974683319
 30
0.0
  0
VERTEX
  5
3FBA
  8
FACILITY
 10
4229.9843932486046
 20
1330.4999974683319
 30
0.0
  0
VERTEX
  5
3FBB
  8
FACILITY
 10
4229.9843932486046
 20
1317.499997468333
 30
0.0
  0
SEQEND
  5
3FBC
  8
FACILITY
  0
POLYLINE
  5
3C06
  8
FACILITY
 66
     1
 10
0.0
 20
0.0
 30
0.0
 70
     1
  0
VERTEX
  5
3FBD
  8
FACILITY
 10
3571.4843932486051
 20
1315.9999974683319
 30
0.0
  0
VERTEX
  5
3FBE
  8
FACILITY
 10
3584.4843932486051
 20
1315.9999974683319
 30
0.0
  0
VERTEX
  5
3FBF
  8
FACILITY
 10
3585.9843932486051
 20
1317.499997468333
 30
0.0
  0
VERTEX
  5
3FC0
  8
FACILITY
 10
3585.9843932486051
 20
1330.4999974683319
 30
0.0
  0
VERTEX
  5
3FC1
  8
FACILITY
 10
3584.4843932486051
 20
1331.9999974683319
 30
0.0
  0
VERTEX
  5
3FC2
  8
FACILITY
 10
3571.4843932486051
 20
1331.9999974683319
 30
0.0
  0
VERTEX
  5
3FC3
  8
FACILITY
 10
3569.9843932486051
 20
1330.4999974683319
 30
0.0
  0
VERTEX
  5
3FC4
  8
FACILITY
 10
3569.9843932486051
 20
1317.499997468333
 30
0.0
  0
SEQEND
  5
3FC5
  8
FACILITY
  0
POLYLINE
  5
3C07
  8
FACILITY
 66
     1
 10
0.0
 20
0.0
 30
0.0
 70
     1
  0
VERTEX
  5
3FC6
  8
FACILITY
 10
2911.4843932486042
 20
1315.9999974683319
 30
0.0
  0
VERTEX
  5
3FC7
  8
FACILITY
 10
2924.4843932486042
 20
1315.9999974683319
 30
0.0
  0
VERTEX
  5
3FC8
  8
FACILITY
 10
2925.9843932486042
 20
1317.499997468333
 30
0.0
  0
VERTEX
  5
3FC9
  8
FACILITY
 10
2925.9843932486042
 20
1330.4999974683319
 30
0.0
  0
VERTEX
  5
3FCA
  8
FACILITY
 10
2924.4843932486042
 20
1331.9999974683319
 30
0.0
  0
VERTEX
  5
3FCB
  8
FACILITY
 10
2911.4843932486042
 20
1331.9999974683319
 30
0.0
  0
VERTEX
  5
3FCC
  8
FACILITY
 10
2909.9843932486042
 20
1330.4999974683319
 30
0.0
  0
VERTEX
  5
3FCD
  8
FACILITY
 10
2909.9843932486042
 20
1317.499997468333
 30
0.0
  0
SEQEND
  5
3FCE
  8
FACILITY
  0
POLYLINE
  5
3C08
  8
FACILITY
 66
     1
 10
0.0
 20
0.0
 30
0.0
 70
     1
  0
VERTEX
  5
3FCF
  8
FACILITY
 10
2881.4843932486042
 20
1315.9999974683319
 30
0.0
  0
VERTEX
  5
3FD0
  8
FACILITY
 10
2894.4843932486051
 20
1315.9999974683319
 30
0.0
  0
VERTEX
  5
3FD1
  8
FACILITY
 10
2895.9843932486051
 20
1317.499997468333
 30
0.0
  0
VERTEX
  5
3FD2
  8
FACILITY
 10
2895.9843932486051
 20
1330.4999974683319
 30
0.0
  0
VERTEX
  5
3FD3
  8
FACILITY
 10
2894.4843932486051
 20
1331.9999974683319
 30
0.0
  0
VERTEX
  5
3FD4
  8
FACILITY
 10
2881.4843932486042
 20
1331.9999974683319
 30
0.0
  0
VERTEX
  5
3FD5
  8
FACILITY
 10
2879.9843932486051
 20
1330.4999974683319
 30
0.0
  0
VERTEX
  5
3FD6
  8
FACILITY
 10
2879.9843932486051
 20
1317.499997468333
 30
0.0
  0
SEQEND
  5
3FD7
  8
FACILITY
  0
POLYLINE
  5
3C09
  8
FACILITY
 66
     1
 10
0.0
 20
0.0
 30
0.0
 70
     1
  0
VERTEX
  5
3FD8
  8
FACILITY
 10
2221.4843932486051
 20
1315.9999974683319
 30
0.0
  0
VERTEX
  5
3FD9
  8
FACILITY
 10
2234.4843932486042
 20
1315.9999974683319
 30
0.0
  0
VERTEX
  5
3FDA
  8
FACILITY
 10
2235.9843932486042
 20
1317.499997468333
 30
0.0
  0
VERTEX
  5
3FDB
  8
FACILITY
 10
2235.9843932486042
 20
1330.4999974683319
 30
0.0
  0
VERTEX
  5
3FDC
  8
FACILITY
 10
2234.4843932486042
 20
1331.9999974683319
 30
0.0
  0
VERTEX
  5
3FDD
  8
FACILITY
 10
2221.4843932486051
 20
1331.9999974683319
 30
0.0
  0
VERTEX
  5
3FDE
  8
FACILITY
 10
2219.9843932486042
 20
1330.4999974683319
 30
0.0
  0
VERTEX
  5
3FDF
  8
FACILITY
 10
2219.9843932486042
 20
1317.499997468333
 30
0.0
  0
SEQEND
  5
3FE0
  8
FACILITY
  0
POLYLINE
  5
3C0A
  8
FACILITY
 66
     1
 10
0.0
 20
0.0
 30
0.0
 70
     1
  0
VERTEX
  5
3FE1
  8
FACILITY
 10
1561.484393248604
 20
1315.9999974683319
 30
0.0
  0
VERTEX
  5
3FE2
  8
FACILITY
 10
1574.484393248604
 20
1315.9999974683319
 30
0.0
  0
VERTEX
  5
3FE3
  8
FACILITY
 10
1575.984393248604
 20
1317.499997468333
 30
0.0
  0
VERTEX
  5
3FE4
  8
FACILITY
 10
1575.984393248604
 20
1330.4999974683319
 30
0.0
  0
VERTEX
  5
3FE5
  8
FACILITY
 10
1574.484393248604
 20
1331.9999974683319
 30
0.0
  0
VERTEX
  5
3FE6
  8
FACILITY
 10
1561.484393248604
 20
1331.9999974683319
 30
0.0
  0
VERTEX
  5
3FE7
  8
FACILITY
 10
1559.984393248604
 20
1330.4999974683319
 30
0.0
  0
VERTEX
  5
3FE8
  8
FACILITY
 10
1559.984393248604
 20
1317.499997468333
 30
0.0
  0
SEQEND
  5
3FE9
  8
FACILITY
  0
POLYLINE
  5
3C0B
  8
FACILITY
 66
     1
 10
0.0
 20
0.0
 30
0.0
 70
     1
  0
VERTEX
  5
3FEA
  8
FACILITY
 10
901.48439324860465
 20
1315.9999974683319
 30
0.0
  0
VERTEX
  5
3FEB
  8
FACILITY
 10
914.48439324860465
 20
1315.9999974683319
 30
0.0
  0
VERTEX
  5
3FEC
  8
FACILITY
 10
915.98439324860465
 20
1317.499997468333
 30
0.0
  0
VERTEX
  5
3FED
  8
FACILITY
 10
915.98439324860465
 20
1330.4999974683319
 30
0.0
  0
VERTEX
  5
3FEE
  8
FACILITY
 10
914.48439324860465
 20
1331.9999974683319
 30
0.0
  0
VERTEX
  5
3FEF
  8
FACILITY
 10
901.48439324860465
 20
1331.9999974683319
 30
0.0
  0
VERTEX
  5
3FF0
  8
FACILITY
 10
899.98439324860453
 20
1330.4999974683319
 30
0.0
  0
VERTEX
  5
3FF1
  8
FACILITY
 10
899.98439324860453
 20
1317.499997468333
 30
0.0
  0
SEQEND
  5
3FF2
  8
FACILITY
  0
VIEWPORT
  5
2FA1
 67
     1
  8
0
 10
5.3020837738757987
 20
4.052083210682305
 30
0.0
 40
16.164836460581089
 41
8.9929997457669462
 68
     1
 69
     1
1001
ACAD
1000
MVIEW
1002
{
1070
    16
1010
0.0
1020
0.0
1030
0.0
1010
0.0
1020
0.0
1030
1.0
1040
0.0
1040
8.9929997457669462
1040
5.3020837738757987
1040
4.052083210682305
1040
50.0
1040
0.0
1040
0.0
1070
     0
1070
  3000
1070
     1
1070
     1
1070
     0
1070
     0
1070
     0
1070
     0
1040
0.0
1040
0.0
1040
0.0
1040
0.5
1040
0.5
1040
0.5
1040
0.5
1070
     0
1002
{
1002
}
1002
}
  0
VIEWPORT
  5
2FA3
 67
     1
  8
WALLS-EXTERIOR
 10
5.3020834547328191
 20
4.0520831919091886
 30
0.0
 40
8.4833335275725101
 41
6.483333107054702
 68
     2
 69
     2
1001
ACAD
1000
MVIEW
1002
{
1070
    16
1010
2170.9104588839068
1020
-1629.642429877272
1030
541.26802900663529
1010
0.0
1020
0.0
1030
1.0
1040
0.0
1040
6885.3217447648631
1040
2375.0817377403919
1040
4020.642429976946
1040
50.0
1040
0.0
1040
0.0
1070
     0
1070
  3000
1070
     1
1070
     0
1070
     0
1070
     0
1070
     0
1070
     0
1040
0.0
1040
0.0
1040
0.0
1040
12.0
1040
12.0
1040
0.0
1040
0.0
1070
     0
1002
{
1002
}
1002
}
  0
ENDSEC
  0
EOF
